PrimaNota.ru - самый крупный в мире бесплатный архив песенных текстов, аккордов, табулатур и нот


Misc Unsigned Bands - Satans Angels - Undertole - аккорды и текст

Регистрация Запомнить меня
Войти через:  Facebook Google Twitter Vk Yandex Mail.ru

Misc Unsigned Bands - Satans Angels - Undertole - аккорды и текст

Печатать
Просмотров: 37
Satans Angels - Undertole
Misc Unsigned Bands
This is a song in drop D that my band made. To hear more about us, e-mail me at Ultimate@Kornfreak.com
D-A-D-G-B-E THANKS!

(Intro)
D|----0-0-3-0-|
A|----0-0-3-0-|
D|----0-0-3-0-|

D|----0-0-3-0-|
A|----0-0-3-0-|
D|----0-0-3-0-|

D|----0-0-3-0-|
A|----0-0-3-0-|
D|----0-0-3-0-|

D|----0-0-3-0-|
A|----0-0-3-0-|
D|----0-0-3-0-|

D|----X-X-X-X-|
A|----X-X-X-X-|
D|----X-X-X-X-|

(Main Riff)
D|----0-0-3-0-0-3-0-0-3-0-5-5-3-3
A|----0 0 3 0 0 3 0 0 3 0 5 5 3 3
D|----0-0-3-0-0-3-0-0-3-0-5-5-3-3

D|----0-0-3-0-0-3-0-0-3-0-5-5-3-3
A|----0 0 3 0 0 3 0 0 3 0 5 5 3 3
D|----0-0-3-0-0-3-0-0-3-0-5-5-3-3

D|----0-0-3-0-0-3-0-0-3-0-5-5-3-3
A|----0 0 3 0 0 3 0 0 3 0 5 5 3 3
D|----0-0-3-0-0-3-0-0-3-0-5-5-3-3

D|----0-0-3-0-0-3-0-0-3-0-5-5-3-3
A|----0 0 3 0 0 3 0 0 3 0 5 5 3 3
D|----0-0-3-0-0-3-0-0-3-0-5-5-3-3

D|----0-0-3-0-0-3-0-0-3-0-5-5-3-3
A|----0 0 3 0 0 3 0 0 3 0 5 5 3 3
D|----0-0-3-0-0-3-0-0-3-0-5-5-3-3

(Sub Riff)
G|----7-7-8-7-7-8-7-7-8-7-12-12-7-7
D|----7-7-8-7-7-8-7-7-8-7-12-12-7-7
A|----5-5-6-5-5-6-5-5-6-5-10-10-5-5

G|----7-7-8-7-7-8-7-7-8-7-12-12-7-7
D|----7-7-8-7-7-8-7-7-8-7-12-12-7-7
A|----5-5-6-5-5-6-5-5-6-5-10-10-5-5

G|----7-7-8-7-7-8-7-7-8-7-12-12-7-7
D|----7-7-8-7-7-8-7-7-8-7-12-12-7-7
A|----5-5-6-5-5-6-5-5-6-5-10-10-5-5

G|----7-7-8-7-7-8-7-7-8-7-12-12-7-7
D|----7-7-8-7-7-8-7-7-8-7-12-12-7-7
A|----5-5-6-5-5-6-5-5-6-5-10-10-5-5

(Solo 1)                        ____
D|----5-5-5-3-3-5                  |
A|----5-5-5-3-3-5                  |
D|----5-5-5-3-3-5                  |
                                   |
D|----5-5-5-3-3-5                  |
A|----5-5-5-3-3-5                  |
D|----5-5-5-3-3-5                  | 
                                   |---       Play 4 Times
D|----5-5-5-3-3-5                  |---
A|----5-5-5-3-3-5                  |
D|----5-5-5-3-3-5                  |
                                   |
D|----8-8-8-8-3-3-3-3   (X4)       |
A|----8-8-8-8-3-3-3-3              | 
D|----8-8-8-8-3-3-3-3              |
                                ___|

D|----5-5-5-5-5-5-5-5-5-5-5-5-5-5-5-5
A|----5-5-5-5-5-5-5-5-5-5-5-5-5-5-5-5
D|----5-5-5-5-5-5-5-5-5-5-5-5-5-5-5-5

(Play Main Riff)

(Solo 2)
G|----7-7-7----------------------
D|----7-7-7-7-7-7-7-5-5-5-7-7-7-7
A|----5-5-5-7-7-7-7-5-5-5-7-7-7-7
D|----------7-7-7-7-5-5-5-7-7-7-7

G|----7-7-7-------------------------
D|----7-7-7-7-7-7-7-5|-5|-5|-7-7-7-7
A|----5-5-5-7-7-7-7-5|-5|-5|-7-7-7-7
D|----------7-7-7-7-5|-5|-5|-7-7-7-7

G|----7-7-7----------------------
D|----7-7-7-7-7-7-7-5-5-5-7-7-7-7
A|----5-5-5-7-7-7-7-5-5-5-7-7-7-7
D|----------7-7-7-7-5-5-5-7-7-7-7

G|----7-7-7----------------------
D|----7-7-7-7-7-7-7-5-5-5-3-3-5--
A|----5-5-5-7-7-7-7-5-5-5-3-3-5--
D|----------7-7-7-7-5-5-5-3-3-5--

(Play Solo 1)

D|----5-5-5-8-8-8-8-8-8-5-3-3-3-7-7-7-
A|----5-5-5-8-8-8-8-8-8-5-3-3-3-7-7-7-
D|----5-5-5-8-8-8-8-8-8-5-3-3-3-7-7-7-

D|----8-8-8-3-1-1-1-3-3-3-5-5-5-1-0-0-0-0-0-3-5-5-3-3
A|----8-8-8-3-1-1-1-3-3-3-5-5-5-1-0-0-0-0-0-3-5-5-3-3
D|----8-8-8-3-1-1-1-3-3-3-5-5-5-1-0-0-0-0-0-3-5-5-3-3

D|----3-5~-3-5~-3-5~-3-5~  
A|----3-5~-3-5~-3-5~-3-5~ 
D|----3-5~-3-5~-3-5~-3-5~

A|-----------------------------------------------------------
D|----0-0-3-0-0-3-0-0-3-0-5-5-3-3-0-0-3-0-0-3-0-0-3-0-5-5-0-0

D|----0-0-3-0-0-3-0-0-3-0-5-5-3-3-0-0-3-0-0-3-0-0-3-0-5-5-3-3-0-0-3-0-
A|----0-0-3-0-0-3-0-0-3-0-5-5-3-3-0-0-3-0-0-3-0-0-3-0-5-5-3-3-0-0-3-0-
D|----0-0-3-0-0-3-0-0-3-0-5-5-3-3-0-0-3-0-0-3-0-0-3-0-5-5-3-3-0-0-3-0-

D|----0-3-0-0-3-0-5-5-3-3-0-0-3-0-0-3-0-0-3-0-5-5-3-3
A|----0-3-0-0-3-0-5-5-3-3-0-0-3-0-0-3-0-0-3-0-5-5-3-3
D|----0-3-0-0-3-0-5-5-3-3-0-0-3-0-0-3-0-0-3-0-5-5-3-3

G|----5-5-6-5-5-6-5-5-6-5-8-8-6-6
D|----5-5-6-5-5-6-5-5-6-5-8-8-6-6
A|----3-3-4-3-3-4-3-3-4-3-6-6-4-4

G|----5-5-6-5-5-6-5-5-6-5-8-8-6-6
D|----5-5-6-5-5-6-5-5-6-5-8-8-6-6
A|----3-3-4-3-3-4-3-3-4-3-6-6-4-4

D|----0-0-3-0-0-3-0-0-3-0-5-5-3-3-0-0-3-0-0-3-0-0-3-0-0-3-0
A|----0-0-3-0-0-3-0-0-3-0-5-5-3-3-0-0-3-0-0-3-0-0-3-0-0-3-0
D|----0-0-3-0-0-3-0-0-3-0-5-5-3-3-0-0-3-0-0-3-0-0-3-0-0-3-0
Добавлено: 03.11.2013
Другие материалы по этой песне:
  • Аккорды и текст

Страница создана 03.11.2013
http://primanota.ru/misc-unsigned-bands/satans-angels-undertole-chords.htm
Привет, Гость.
Предлагаем пройти революционный курс по гитаре.
Подарок от PrimaNota.Ru, забирай!