PrimaNota.ru - самый крупный в мире бесплатный архив песенных текстов, аккордов, табулатур и нот


Misc Unsigned Bands - Sa Iyong Mundo - Kambal Sirena Theme - аккорды и текст

Регистрация Запомнить меня
Войти через:  Facebook Google Twitter Vk Yandex Mail.ru

Misc Unsigned Bands - Sa Iyong Mundo - Kambal Sirena Theme - аккорды и текст

Печатать
Просмотров: 72
Sa Iyong Mundo - Kambal Sirena Theme
Misc Unsigned Bands
Intro:
|--------3----------------------0--|---------5--------------------0-----|
|--3----------------0--1-----------|---3--------------1--0--------------|
|-----0----------0-----------0-----|------0--------0-----------0--------|
|-------------0-----------0--------|------------0-----------0-----------|
|----------------------3-----------|---3-----------------0--------------|
|--3-------------------------------|------------------------------------|

Verse:
G              C         F          G
Dinggin mo ang tinig ko, na sumasamo
            C        F              G
Kailan ba makakamit, ang pag ibig mo

Bridge:
Em                  D
Narito(narito) ang puso ko(ang puso ko)
    F        D
Naghihintay lang
G
Sana ay(sana ay)
C
Isama mo (isama mo) 
Am           G
sa iyong mundo

Chorus:
C      D     G     C  
Di maalis sa isip ko
C         D    G
Ikaw lang at ako
F      D    G  C
Magkasabay umaawit 
   C-D
Sa iisang mundo

Instrumental:
|-----------------------------------------------3--2--------|
|--0--1--3------------0-----0--1-------------1--------------|
|--------------0---------2----------------2-----------4-----|
|-----------0---------------------0-------------------------|
|------------------------0----------------0-----------------|
|--3--------------------------------------------------------|

|-----------------------------------------------3--2--3-----|
|--0--1--3------------0-----0--1-------------1--------------|
|--------------0---------2----------------2-----------------|
|-----------0---------------------0-------------------------|
|------------------------0----------------0-----------------|
|--3--------------------------------------------------------|

Chorus:
C      D     G     C  
Di maalis sa isip ko
C         D    G
Ikaw lang at ako
F      D    G  C
Magkasabay umaawit 
   C-D
sa iisang mundo

Instrumental:
|-----------------------------------------------3--2--------|
|--0--1--3------------0-----0--1-------------1--------------|
|--------------0---------2----------------2-----------4-----|
|-----------0---------------------0-------------------------|
|------------------------0----------------0-----------------|
|--3--------------------------------------------------------|

|-----------------------------------------------3--2--3-----|
|--0--1--3------------0-----0--1-------------1--------------|
|--------------0---------2----------------2-----------------|
|-----------0---------------------0-------------------------|
|------------------------0----------------0-----------------|
|--3--------------------------------------------------------|

Bridge:
Em                  D
Narito(narito) ang puso ko(ang puso ko)
    F        D
Naghihintay lang
G
Sana ay(sana ay)
C
Isama mo (isama mo) 
Am           G
sa iyong mundo

Outro:
|--------3----------------------0--|
|--3----------------0--1-----------|
|-----0----------0-----------0-----|
|-------------0-----------0--------|
|----------------------3-----------|
|--3-------------------------------|
Добавлено: 25.03.2016
Другие материалы по этой песне:
  • Аккорды и текст

Страница создана 25.03.2016
http://primanota.ru/misc-unsigned-bands/sa-iyong-mundo-kambal-sirena-theme-chords.htm
Привет, Гость.
Предлагаем пройти революционный курс по гитаре.
Подарок от PrimaNota.Ru, забирай!