PrimaNota.ru - самый крупный в мире бесплатный архив песенных текстов, аккордов, табулатур и нот


Misc Unsigned Bands - Rafał Bańdura - No Name - таба

Регистрация Запомнить меня
Войти через:  Facebook Google Twitter Vk Yandex Mail.ru

Misc Unsigned Bands - Rafał Bańdura - No Name - таба

Печатать
Просмотров: 16
Новый альбом группы 'Черный Кузнец' по культовому сериалу 'Сверхъестественное'!
[Intro]

e|----------x------x--------x------x----------------------------------------------|
B|------11--x--10--x-----6--x---8--x----------------------------------------------|
G|----------x------x--------x------x-----2X---------------------------------------|
D|----------x------x--------x------x----------------------------------------------|
A|---10-----x--8---x--5-----x---6--x----------------------------------------------|
E|----------x------x--------x------x----------------------------------------------|

e|---------x-----x--------x------x---------------------------------------------|
B|------3--x--4--x-----6--x--8---x---------------------------------------------|
G|---------x-----x--------x------x------2X-------------------------------------|
D|---------x-----x--------x------x---------------------------------------------|
A|---1-----x--3--x--5-----x--6---x---------------------------------------------|
E|---------x-----x--------x------x---------------------------------------------|



e|----------x------x----------x------x-----------x------------------------------|
B|------11--x--10--x------15--x--6---x---8---10--x------------------------------|
G|----------x------x----------x------x-----------x-----2X-----------------------|
D|----------x------x----------x------x-----------x------------------------------|
A|--10------x--8---x--13------x--5---x---6---8---x------------------------------|
E|----------x------x----------x------x-----------x------------------------------|

e|-----------x------x----------x-----x-------------------------------------------|
B|-------11--x--10--x------15--x--6--x---8---10--------------11~-----------------|
G|-----------x------x----------x-----x-------------------------------------------|
D|-----------x------x----------x-----x-------------------------------------------|
A|---10------x--8---x--13------x--5--x---6---8---------10~-----------------------|
E|-----------x------x----------x-----x-------------------------------------------|


********************************

| x   uderzenie w struny 
| ~   Vibrato

******************************** 
Muzyka: Rafał B.
 
Добавлено: 25.04.2018
Вам также может быть интересно:
Другие материалы по этой песне:
  • Аккорды и текст

Страница создана 25.04.2018
http://primanota.ru/misc-unsigned-bands/rafa-bandura-no-name-chords.htm
Привет, Гость.
Предлагаем пройти революционный курс по гитаре.
Подарок от PrimaNota.Ru, забирай!