PrimaNota.ru - самый крупный в мире бесплатный архив песенных текстов, аккордов, табулатур и нот


Misc Unsigned Bands - Rabble - This World Is Dead - бас-таба, видео

Регистрация Запомнить меня
Войти через:  Facebook Google Twitter Vk Yandex Mail.ru

Misc Unsigned Bands - Rabble - This World Is Dead - бас-таба, видео

Печатать
Просмотров: 69
Уроки эстрадного вокала в Санкт-Петербурге
This is the first song I've ever tabbed so it's obviously going to be a little off,
but it sounds almost perfect, especially when playing with a band.


Intro

G--------------------------------------------------------|     X1
D-------0----0----0----0---------------------------------|
A-14-14---14---14--14---14-12-10-12-10-------------------|
E------------------------------------------------------5-|

Verse Intro/Verse

G-------------------------------------------|    X4
D-------------------------------------------|
A--------------------88888888-777777777-----|
E---55555555555555555-----------------------|

Chorus

G----------------------------------------------------------|
D----7-7-5---5-5-------------------------------------------|
A----------8------8-7-8-8-7-5-----88888888-77777777--------|
E-----------------------------8888-------------------------|
										X1
G--------------------------------------------------------|
D-77-55-7-99-77-9-1010-99-10----9-7----------------------|
A-----------------------------------10-88888888-77777777-|
E--------------------------------------------------------|

Verse

G-------------------------------------------|    X2
D-------------------------------------------|
A---------------------88888888-777777777----|
E---55555555555555555-----------------------|

Chorus

G--------------------------------------------------------------|
D----7-7-5---5-5-----------------------------------------------|
A-----------8------8-7-8-8-7-5-88888888-77777777---------------|
E--------------------------------------------------------------|
										X1
G--------------------------------------------------------------------|
D-77-55-7-99-77-9-1010-99-10-9-7----------------------9-9h10p9p-7----|
A--------------------------------10-88888888-77777----------------10-|
E--------------------------------------------------------------------|

Bridge
G---------------------------------------------------------------------------------|
D---------------------------------------------------------------------------------|
A---8-------7--------------------------78888888-77777777------------------------7-|
E--------------55555555-8888888----------------------------555555555555555--------|

G---------------------------------------------------------|
D---------------------------------------------------------|
A---88888888-77777777-------------------------------------|
E-----------------------------55555555-8888888------------|
								X3
G---------------------------------------------------------|
D---------------------------------------------------------|
A-7-8888888-77777777--------------------------7-----------|
E-----------------------------555555555555555-------------|

G--------------------------------------------------------------------------------------------|
D--------------------------------------------------------------------------------------------|
A---88888888-77777777------------------------7-8888888-77777777------------------------------|
E-----------------------------55555555-8888888-----------------------------5555555555555555--|

End

G------------------------------|
D------------------------------|
A------------------------------|
E---5----------1----0----------|

G------------------------------|
D------------------------------|
A------------------------------|
E---55----------1----0---------|

G------------------------------------------------------------|   X4
D------------------------------------------------------------|
A----------------------------88888888-777777777--------------|
E---5555555555555555-----------------------------------------|

G--------------------|
D--------------------|
A--------------------|
E---5-------5/1------|

G-----------------------------------------------------------------------|
D----------------------------77-99-1010-99-77---------------------------|
A---------------------------------------------------1010-99-------------|
E---5555555555555555-----------------------------------108-5------------|
Добавлено: 25.02.2014
Другие материалы по этой песне:
  • Аккорды и текст

Страница создана 25.02.2014
http://primanota.ru/misc-unsigned-bands/rabble-this-world-is-dead-chords.htm
Привет, Гость.
Предлагаем пройти революционный курс по гитаре.
Подарок от PrimaNota.Ru, забирай!