PrimaNota.ru - самый крупный в мире бесплатный архив песенных текстов, аккордов, табулатур и нот


Misc Unsigned Bands - Patid Tanaboriboon - Canon In C - таба

Регистрация Запомнить меня
Войти через:  Facebook Google Twitter Vk Yandex Mail.ru

Misc Unsigned Bands - Patid Tanaboriboon - Canon In C - таба

Печатать
Просмотров: 46
**************
*            *
* Canon In c *    
*            *
**************

Ver: Remix viaration



By : Patid Tanaboriboon  

     

    ( patid_8@hotmail.com )





Intro : - - - - - - - - - - - - - - - - - - - - - -



   C               G               Am

e|-0---------------3---------------0---------------|
B|-1---------------3-------0-------1---------------|
G|-0---------------0---------------2---------------|
D|-2---------------0---------------2---------------|
A|-3-------------------------------0---------------|
E|-----------------3-------------------------------|

   Em             Fmaj7            C 

e|-3----3-----5----1---0-------1---0---------------|
B|-0----0----------1-------3-------1---3---1-------|
G|-0----------5----2---------------0-----------0---|
D|-----------------3---------------2---------------|
A|---------------------------------3---------------|
E|-0-----------------------------------------------|

  Fmaj7            G             G7
  
e|-----------------0------------------1-|
B|-1-----------1---1-----------------0--|
G|-2---0-----------0----------------0---|
D|-3-------3-----------------------0----|
A|-3------------------------------2-----|
E|-----------------3-------------3------|




Verse : - - - - - - - - - - - - - - - - - - - - - -


   C               G               Am

e|-0-------0---------------------------------------|
B|-----1-------1---3-------3-------1-------1-------|
G|---0---0---0---0-----0-------0-------2-------2---|
D|-------------------0---0---0---0---2---2---2---2-|
A|-3-------------------------------0---------------|
E|-----------------3-------------------------------|

   Em             Fmaj7            C 

e|-------------------------------------------------|
B|-0-------0---------------------------------------|
G|-----0-------0---2-------2-------0-------0-------|
D|---2---2---2---0-3---3-------3-------2-------2---|
A|-------------------3---3---3---3-3-3---3---3---3-|
E|-0-----------------------------------------------|

  Fmaj7            G
  
e|---------------------------------|
B|-----------------0-------0-------|
G|-2-------2-----------0-------0---|
D|-3---3-------3-----0---0---0---0-|
A|---3---3---3---3-----------------|
E|-----------------3---------------|

   C               G               Am
  
e|-----------------------------------------0-------|
B|-1-------1-------0-------0---1---1---------------|
G|-----0-------0-------0---------0-----2-------2---|
D|---2---2---2---2---0---0---0-------2---2---2---2-|
A|-3-------------------------------0---------------|
E|-----------------3-------------------------------|

   Em             Fmaj7            C 

e|-3-----------------------------------------------|
B|-------------------------------------------------|
G|-----0---0---0---2---------------0---------------|
D|---2---2---2---0-3---3---3---3-------2---2---2---|
A|-------------------3---3---3---3-3-3---3---3---3-|
E|-0-----------------------------------------------|

  Fmaj7            G
  
e|---------------------------------|
B|---------1-------1-------0---1---|
G|---------------------0-----------|
D|-3---3-------3-----0---0---0---0-|
A|-3-3---3---3---3-----------------|
E|-----------------3---------------|

   C               G               Am
  
e|---------0-------3-------1---0---0---------------|
B|-1---------------------------------------1-------|
G|-----0-------0-------0---------0-----2-------2---|
D|---2---2---2---2---0---0---0-------2---2---2---2-|
A|-3-------------------------------0---------------|
E|-----------------3-------------------------------|

   Em             Fmaj7            C 

e|-0-----------------------------------------------|
B|---------3---1---1---------------1---------------|
G|-----0-------------------2---------------0-------|
D|---2---2---2---2-3---3-------3-------2-------2---|
A|-------------------3---3---3---3-3-3---3---3---3-|
E|-0-----------------------------------------------|

  Fmaj7            G
  
e|---------------------------------|
B|---------------------------------|
G|-2-------2-------0---------------|
D|-3---3-------3-------0---3---2---|
A|---3---3---3---3---2---2---2---2-|
E|-----------------3---------------|

   C               G               Am
  
e|-0---------------------------------------0-------|
B|---------1-------3-------0---3---1---------------|
G|-----0-------0-------0---------0-----2-------2---|
D|---2---2---2---2---0---0---0-------2---2---2---2-|
A|-3-------------------------------0---------------|
E|-----------------3-------------------------------|

   Em             Fmaj7            C 

e|-3-----------------------------------------------|
B|-------------------------------------------------|
G|-----0---0---0---2---------------0---------------|
D|---2---2---2---0-3---3---3---3-------2---2---2---|
A|-------------------3---3---3---3-3-3---3---3---3-|
E|-0-----------------------------------------------|

  Fmaj7            G
  
e|---------------------------------|
B|---------1-------1-------0---1---|
G|---------------------0-----------|
D|-3---3-------3-----0---0---0---0-|
A|-3-3---3---3---3-----------------|
E|-----------------3---------------|

   C               G               Am

e|---------------------------------------------0---|
B|-1---0---1-------------------0---1---0---1-------|
G|---0---0---0---0-0-------2-----0-----------------|
D|-------------2-------0-----0-------2---2---2---2-|
A|-3-----------------2---2---------0---------------|
E|-----------------3-------------------------------|

   Em             Fmaj7            C 

e|-3---0---3---5---1---0-------1---0---------------|
B|-------------------------3-----------3---1---0---|
G|---0---0---0---0---2---2---2---2---0---0---0---0-|
D|-----------------3-------------------------------|
A|---------------------------------3---------------|
E|-0-----------------------------------------------|

  Fmaj7            G
  
e|---------------------------------|
B|-1---0-------1---1---0---1---3---|
G|---------2-------------0---0---0-|
D|-3-3---3---3---3---0-------------|
A|---------------------------------|
E|-----------------3---------------|



Pre Hook : - - - - - - - - - - - - - - - - - - - - 

 
  C               G               Am

e|-0-----3-----0---0---1---0-------------0---------|
B|-----1---1-------------------3---1-----------1---|
G|---0-------0---0-----------0---0-----2-----2---2-|
D|-----------------------0-----------2-----2-------|
A|-3-----------------2-------------0---------------|
E|-----------------3-------------------------------|

   Em             Fmaj7            C

e|-------------------------------------------------|
B|-1---3---1---0---------1---------------1---------|
G|-----------0---0-2-----------2---0-----------0---|
D|-------2---------3---3-----3---3-----2-----2---2-|
A|---2---------------3-----3-------3-3-----3-------|
E|-0-----------------------------------------------|

  Fmaj7            G

e|---------------------------------|
B|-------1---------0---0---1---3---|
G|-2-----------2-------------0---0-|
D|-3---3-----3---3-------0---------|
A|---3-----3---------2-------------|
E|-----------------3---------------|

   C               G               Am

e|-3---0-1-3---0---------0-1---------------0-------|
B|-----------------3---3-------3---1---1-3-----1---|
G|---0-------0---0-----------0---0---2-------2---2-|
D|-------------------2-----------------------------|
A|-3-------------------------------0---------------|
E|-----------------3-------------------------------|

   Em             Fmaj7            C

e|-----------------------------1---0---------0-----|
B|-0-------0-1-0---------1-------------3-1-------1-|
G|-----0-2-------0-2-----------------0-----0---0---|
D|---2-------------3---3-----3---3-----------------|
A|-------------------3-----3-------3---------------|
E|-0-----------------------------------------------|

  Fmaj7            G

e|---------------------------------|
B|-------1-----1---1---0---1---3---|
G|-2-------------0-----------0---0-|
D|-3---3-----3-----------0---------|
A|---3-----3---------2-------------|
E|-----------------3---------------|

   C               G               Am

e|-0-------0-------------------------------0-------|
B|-----1-3-----1---0---0-1-3---0---1---1-3-----2---|
G|---0-------0---0---------------0-----------2---2-|
D|-------------------0-------0-------2-------------|
A|-3-------------------------------0---------------|
E|-----------------3-------------------------------|

   Em             Fmaj7            C

e|-----3-1-0---3---5-----------5-----------0-------|
B|-0-------------------8---6-------8---6-------8---|
G|-----------0---0---0---0---0---0---0---0---0---0-|
D|---2---------------------------------------------|
A|-----------------8-------------------------------|
E|-0-------------------------------8---------------|

  Fmaj7            G

e|-5-----------8---8---7---8---10---|
B|-----8---6-----------------------|
G|---0---0---0---0---0---0---0---0-|
D|---------------------------------|
A|-8---------------10---------------|
E|---------------------------------|



Hook : - - - - - - - - - - - - - - - - - - - - - - -


   C               G               Am

e|-0-------0-------------0-1-0---0-----------------|
B|-----1-----3-1-3-----1-------3---3---3-1-----0-1-|
G|---0---0-----------0---------------2-------2-----|
D|-----------------------------------------2-------|
A|-3-------------------------------0---------------|
E|-----------------3-------------------------------|

   Em             Fmaj7            C

e|-----------------------------1---0---------------|
B|-0---------0-----------1-------------3-1-----1---|
G|-----0---------0-2-------------2---0-------0---0-|
D|---2---2-----2---3---3-----3-------------2-------|
A|---------2---------3-----3-------3---------------|
E|-0-----------------------------------------------|

  Fmaj7            G

e|-----------------------------0-1-|
B|-1-----1-----1---1---0---1-3-----|
G|---------------2---0---0---------|
D|-3---3-----3---------------------|
A|---3-----3-----------------------|
E|-----------------3---------------|

   C               G               Am

e|-0-------0-------------0-1-0---0-----------------|
B|-----1-----3-1-3-----1-------3---3---3-1-----0-1-|
G|---0---0-----------0---------------2-------2-----|
D|-----------------------------------------2-------|
A|-3-------------------------------0---------------|
E|-----------------3-------------------------------|

   Em             Fmaj7            C

e|---------------0-1-----3-----1---0---------------|
B|-0-------0-1-3-------1-----1-----------3-----1---|
G|-----0-2-----------2-----2-----2-----0-----0-----|
D|---2-------------3-----------------2-----2-----2-|
A|---------------------------------3---------------|
E|-0-----------------------------------------------|

  Fmaj7            G

e|-0-----0------1--3-----3-----3---|
B|-----1-----1---------0-----0-----|
G|---2-----2-----2---0-----0-----0-|
D|-3-------------------------------|
A|---------------------------------|
E|-----------------3---------------|

   C               G               Am

e|-3---0-1-3---0-1-3-----------0-1-0-------0-------|
B|-----------------------0-1-3---------1-3-----0---|
G|---0-------0-------0-2-------------2-------2---2-|
D|-------------------------------------------------|
A|-3-------------------------------0---------------|
E|-----------------3-------------------------------|

    Em             Fmaj7            C

e|-----3-1-0---3---1---1-0-----1---0---0-----------|
B|-0-----------------------3-------------3-1---0---|
G|-----------0---0---2-------0---0---0-------0---0-|
D|---2-------------3-------------------------------|
A|---------------------------------3---------------|
E|-0-----------------------------------------------|

  Fmaj7            G

e|-1---1-0-----1---3---3-1-3---1---|
B|---------3-----------------------|
G|---2-------2---2---0-------0---0-|
D|-3-------------------------------|
A|---------------------------------|
E|-----------------3---------------|

   C               G               Am

e|-0---0-1-3-1-0---------0-1-0---0-----------------|
B|---------------3-----1-------3---3---1-1-----0-1-|
G|---0---------------0---------------2-------2-----|
D|-----------------------------------------2-------|
A|-3-------------------------------0---------------|
E|-----------------3-------------------------------|

    Em             Fmaj7            C

e|-------------------------------------------------|
B|-0-------0-1-0---2---1-0-------------------1-0-1-|
G|-----0-2-------0---------2-0-----0-2-0---0-------|
D|---2-------------3-----------2-3-------3---------|
A|-------------------3-------------3---------------|
E|-0-----------------------------------------------|

  Fmaj7            G

e|-----------------------------0-1-|
B|---1-0-1---1-0-1-0-----0-1-3-----|
G|-2-------2---------0-2-----------|
D|-3-------------------------------|
A|---------------------------------|
E|-----------------3---------------|



Outro : - - - - - - - - - - - - - - - - - - - - - - -



   C               G               Am

e|-0-------0---1---3---5---3---1---0---------------|
B|-----1-------------------------------3---1---3---|
G|---0---0---0---0---0---0---0---0---2---2---2---2-|
D|-------------------------------------------------|
A|-3-------------------------------0---------------|
E|-----------------3-------------------------------|

    Em             Fmaj7            C

e|-0---1---0---------------------------------------|
B|-------------3---1---------0-1-1---1-0-1---1-0-1-|
G|-------------------------2---------------0-------|
D|---2---2---2---2-3---3---------------------------|
A|-------------------3---3---------3---------------|
E|-0-----------------------------------------------|

  Fmaj7            G

e|-----------------------------0-1-|
B|---1-0-1---1-0-1-0-----0-1-3-----|
G|-2-------2---------0-2-----------|
D|-3-------------------------------|
A|---------------------------------|
E|-----------------3---------------|

   C               G               Am

e|-3---1---0---1---3---5---3---1---0---------------|
B|-------------------------------------3---1---3---|
G|---0---0---0---0---0---0---0---0---2---2---2---2-|
D|-------------------------------------------------|
A|-3-------------------------------0---------------|
E|-----------------3-------------------------------|

    Em             Fmaj7            C

e|-0---1---0---------------------------------------|
B|-------------3---1-----------0---1---3---1---0---|
G|-------------------------2-----------------------|
D|---2---2---2---2-3---3-----3---3---2---2---2---2-|
A|-------------------3---3---------3---------------|
E|-0-----------------------------------------------|



Slower play   Till  fade .
  
  
  Fmaj7            G

e|-----0-------------------------------0-|
B|-1-------3---1---0---3---1---0------1--|
G|-------------------0---0---0---0---0---|
D|-3-3---3---3---3------------------2----|
A|---------------------------------3-----|
E|-----------------3---------------------|




To be Continue later...





Thanks for : Pachelbel , George , Tor , etc.






patid_8@hotmail.com)   26/09/2008




Добавлено: 15.08.2013
Другие материалы по этой песне:
  • Аккорды и текст

Страница создана 15.08.2013
http://primanota.ru/misc-unsigned-bands/patid-tanaboriboon-canon-in-c-chords.htm
Привет, Гость.
Предлагаем пройти революционный курс по гитаре.
Подарок от PrimaNota.Ru, забирай!