PrimaNota.ru - самый крупный в мире бесплатный архив песенных текстов, аккордов, табулатур и нот


Misc Unsigned Bands - Park Jefferson - Couches - таба, видео

Регистрация Запомнить меня
Войти через:  Facebook Google Twitter Vk Yandex Mail.ru

Misc Unsigned Bands - Park Jefferson - Couches - таба, видео

Печатать
Просмотров: 40
Уроки эстрадного вокала в Санкт-Петербурге
                                     COUCHES
                          As recorded by Park Jefferson
                         (From the 2011 Album WEEKDAYS)

Words and Music by Park Jefferson
Arranged by Park Jefferson
Transcribed by astoit1323

I've been listening to this song for a while, so I decided to tab it. Guitar II is 
tuned a half step down in this song. Any comments questions or concerns can be 
emailed to me at snpr1323@gmail.com

Gtr I (Eb Ab Db Gb Bb Eb) - 'Guitar 1'
Gtr II (E A D G B E) - 'Guitar 2'
Gtr III (E A D G B E) - 'Piano'


  Q=95
 4/4
  Gtr I
   E E  E E E E  E E    E E E E  E E E E
|--------------------|-------------------|
|--------------------|-------------------|
|-------3--------3---|-------------------|
|----5----5---5----5-|------0--------0---|
|--6--------6--------|----1---1----1---1-|
|--------------------|--3--------1-------|
|
| Gtr II
|  E E  E E E E  E E    E E E E  E E E E
|----0----0---0----0-|-------------------|
|-------2--------2---|------2--------2---|
|--2--------2--------|--1-2---2--1-2---2-|
|--------------------|-------------------|
|--------------------|-------------------|
|--------------------|-------------------|
|
| Gtr III
|  Q    H        Q      H        H
|------12------------|-------------------|
|---------------14---|-14-------12-------|
|-14-----------------|-------------------|
|--------------------|-------------------|
|--------------------|-------------------|
|--------------------|-------------------|


   E E  E E E E  E E    E E E E  E E E E
|--------------------|--------------------|
|--------------------|--------------------|
|-------3--------3---|--------------------|
|----5----5---5----5-|------0--------0----|
|--6--------6--------|----1---1----1---1--|
|--------------------|--3--------1--------|
|
|  E E  E E E E  E E    E E E E  E E E E
|----0----0---0----0-|--------------------|
|-------2--------2---|------2--------2----|
|--2--------2--------|--1-2---2--1-2---2--|
|--------------------|--------------------|
|--------------------|--------------------|
|--------------------|--------------------|
|
|  Q    H        Q      H        H
|------12------------|--------------------|
|---------------14---|-14-------12--------|
|-14-----------------|--------------------|
|--------------------|--------------------|
|--------------------|--------------------|
|--------------------|--------------------|


   E E  E E E E  E E    E E E E  E E E E
|--------------------|-------------------|
|--------------------|-------------------|
|-------3--------3---|-------------------|
|----5----5---5----5-|------0--------0---|
|--6--------6--------|----1---1----1---1-|
|--------------------|--3--------1-------|
|
|  E E  E E E E  E E    E E E E  E E E E
|----0----0---0----0-|-------------------|
|-------2--------2---|------2--------2---|
|--2--------2--------|--1-2---2--1-2---2-|
|--------------------|-------------------|
|--------------------|-------------------|
|--------------------|-------------------|
|
|  Q    H        Q      H        H
|------12------------|-------------------|
|---------------14---|-14-------12-------|
|-14-----------------|-------------------|
|--------------------|-------------------|
|--------------------|-------------------|
|--------------------|-------------------|


   E E  E E E E  E E    E E E E  E E E E
|--------------------|-------------------|
|--------------------|-------------------|
|-------3--------3---|-------------------|
|----5----5---5----5-|------0--------0---|
|--6--------6--------|----1---1----1---1-|
|--------------------|--3--------1-------|
|
|  E E  E E E E  E E    E E E E  E E E E
|----0----0---0----0-|-------------------|
|-------2--------2---|------2--------2---|
|--2--------2--------|--1-2---2--1-2---2-|
|--------------------|-------------------|
|--------------------|-------------------|
|--------------------|-------------------|
|
|  Q    H        Q      H        H
|--------------------|-------------------|
|-15---14-------15---|-14-------12-------|
|--------------------|-------------------|
|--------------------|-------------------|
|--------------------|-------------------|
|--------------------|-------------------|


   E E  E E E E  E E    E E E E  E E E E
|--------------------|-------------------|
|--------------------|-------------------|
|-------3--------3---|-------------------|
|----5----5---5----5-|------0--------0---|
|--6--------6--------|----1---1----1---1-|
|--------------------|--3--------1-------|
|
|  E E  E E E E  E E    E E E E  E E E E
|----0----0---0----0-|-------------------|
|-------2--------2---|------2--------2---|
|--2--------2--------|--1-2---2--1-2---2-|
|--------------------|-------------------|
|--------------------|-------------------|
|--------------------|-------------------|
|
|  Q    H        Q      H        H
|------12------------|-------------------|
|---------------14---|-14-------12-------|
|-14-----------------|-------------------|
|--------------------|-------------------|
|--------------------|-------------------|
|--------------------|-------------------|


   E E  E E E E  E E    E E E E  E E E E
|--------------------|-------------------|
|--------------------|-------------------|
|-------3--------3---|-------------------|
|----5----5---5----5-|------0--------0---|
|--6--------6--------|----1---1----1---1-|
|--------------------|--3--------1-------|
|
|  E E  E E E E  E E    E E E E  E E E E
|----0----0---0----0-|-------------------|
|-------2--------2---|------2--------2---|
|--2--------2--------|--1-2---2--1-2---2-|
|--------------------|-------------------|
|--------------------|-------------------|
|--------------------|-------------------|
|
|  Q    H        Q      H        H
|------12------------|-------------------|
|---------------14---|-14-------12-------|
|-14-----------------|-------------------|
|--------------------|-------------------|
|--------------------|-------------------|
|--------------------|-------------------|


   E E  E E E E  E E    E E E E  E E E E
|--------------------|-------------------|
|--------------------|-------------------|
|-------3--------3---|-------------------|
|----5----5---5----5-|------0--------0---|
|--6--------6--------|----1---1----1---1-|
|--------------------|--3--------1-------|
|
|  E E  E E E E  E E    E E E E  E E E E
|----0----0---0----0-|-------------------|
|-------2--------2---|------2--------2---|
|--2--------2--------|--1-2---2--1-2---2-|
|--------------------|-------------------|
|--------------------|-------------------|
|--------------------|-------------------|
|
|  Q    H        Q      H        H
|------12------------|-------------------|
|---------------14---|-14-------12-------|
|-14-----------------|-------------------|
|--------------------|-------------------|
|--------------------|-------------------|
|--------------------|-------------------|


   E E  E E E E  E E    E E E E  E E E E
|--------------------|-------------------|
|--------------------|-------------------|
|-------3--------3---|-------------------|
|----5----5---5----5-|------0--------0---|
|--6--------6--------|----1---1----1---1-|
|--------------------|--3--------1-------|
|
|  E E  E E E E  E E    E E E E  E E E E
|----0----0---0----0-|-------------------|
|-------2--------2---|------2--------2---|
|--2--------2--------|--1-2---2--1-2---2-|
|--------------------|-------------------|
|--------------------|-------------------|
|--------------------|-------------------|
|
|  Q    H        Q      H        H
|--------------------|-------------------|
|-15---14-------15---|-14-------12-------|
|--------------------|-------------------|
|--------------------|-------------------|
|--------------------|-------------------|
|--------------------|-------------------|


   E E  E E E E  E E    E E E E  E E E E
|--------------------|-------------------|
|--------------------|-------------------|
|-------3--------3---|-------------------|
|----5----5---5----5-|------0--------0---|
|--6--------6--------|----1---1----1---1-|
|--------------------|--3--------1-------|
|
|  E E  E E E E  E E    E E E E  E E E E
|----0----0---0----0-|-------------------|
|-------2--------2---|------2--------2---|
|--2--------2--------|--1-2---2--1-2---2-|
|--------------------|-------------------|
|--------------------|-------------------|
|--------------------|-------------------|
|
|  Q    H        Q      H        H
|------12------------|-------------------|
|---------------14---|-14-------12-------|
|-14-----------------|-------------------|
|--------------------|-------------------|
|--------------------|-------------------|
|--------------------|-------------------|


   E E  E E E E  E E    E E E E  E E E E
|--------------------|-------------------|
|--------------------|-------------------|
|-------3--------3---|-------------------|
|----5----5---5----5-|------0--------0---|
|--6--------6--------|----1---1----1---1-|
|--------------------|--3--------1-------|
|
|  E E  E E E E  E E    E E E E  E E E E
|----0----0---0----0-|-------------------|
|-------2--------2---|------2--------2---|
|--2--------2--------|--1-2---2--1-2---2-|
|--------------------|-------------------|
|--------------------|-------------------|
|--------------------|-------------------|
|
|  Q    H        Q      H        H
|------12------------|-------------------|
|---------------14---|-14-------12-------|
|-14-----------------|-------------------|
|--------------------|-------------------|
|--------------------|-------------------|
|--------------------|-------------------|


   E E  E E E E  E E    E E E E  E E E E
|--------------------|-------------------|
|--------------------|-------------------|
|-------3--------3---|-------------------|
|----5----5---5----5-|------0--------0---|
|--6--------6--------|----1---1----1---1-|
|--------------------|--3--------1-------|
|
|  E E  E E E E  E E    E E E E  E E E E
|----0----0---0----0-|-------------------|
|-------2--------2---|------2--------2---|
|--2--------2--------|--1-2---2--1-2---2-|
|--------------------|-------------------|
|--------------------|-------------------|
|--------------------|-------------------|
|
|  Q    H        Q      H        H
|------12------------|-------------------|
|---------------14---|-14-------12-------|
|-14-----------------|-------------------|
|--------------------|-------------------|
|--------------------|-------------------|
|--------------------|-------------------|


   E E  E E E E  E E    E E E E  E E E E
|--------------------|-------------------|
|--------------------|-------------------|
|-------3--------3---|-------------------|
|----5----5---5----5-|------0--------0---|
|--6--------6--------|----1---1----1---1-|
|--------------------|--3--------1-------|
|
|  E E  E E E E  E E    E E E E  E E E E
|----0----0---0----0-|-------------------|
|-------2--------2---|------2--------2---|
|--2--------2--------|--1-2---2--1-2---2-|
|--------------------|-------------------|
|--------------------|-------------------|
|--------------------|-------------------|
|
|  Q    H        Q      H        H
|--------------------|-------------------|
|-15---14-------15---|-14-------12-------|
|--------------------|-------------------|
|--------------------|-------------------|
|--------------------|-------------------|
|--------------------|-------------------|


   E E  E E E E  E E    E E E E  E E E E
|--------------------|-------------------|
|--------------------|-------------------|
|-------3--------3---|-------------------|
|----5----5---5----5-|------0--------0---|
|--6--------6--------|----1---1----1---1-|
|--------------------|--3--------1-------|
|
|  E E  E E E E  E E    E E E E  E E E E
|----0----0---0----0-|-------------------|
|-------2--------2---|------2--------2---|
|--2--------2--------|--1-2---2--1-2---2-|
|--------------------|-------------------|
|--------------------|-------------------|
|--------------------|-------------------|
|
|  Q    H        Q      H        H
|------12------------|-------------------|
|---------------14---|-14-------12-------|
|-14-----------------|-------------------|
|--------------------|-------------------|
|--------------------|-------------------|
|--------------------|-------------------|


   E E  E E E E  E E    E E E E  E E E E
|--------------------|-------------------|
|--------------------|-------------------|
|-------3--------3---|-------------------|
|----5----5---5----5-|------0--------0---|
|--6--------6--------|----1---1----1---1-|
|--------------------|--3--------1-------|
|
|  E E  E E E E  E E    E E E E  E E E E
|----0----0---0----0-|-------------------|
|-------2--------2---|------2--------2---|
|--2--------2--------|--1-2---2--1-2---2-|
|--------------------|-------------------|
|--------------------|-------------------|
|--------------------|-------------------|
|
|  Q    H        Q      H        H
|------12------------|-------------------|
|---------------14---|-14-------12-------|
|-14-----------------|-------------------|
|--------------------|-------------------|
|--------------------|-------------------|
|--------------------|-------------------|


   E E  E E E E  E E    E E E E  E E E E
|--------------------|-------------------|
|--------------------|-------------------|
|-------3--------3---|-------------------|
|----5----5---5----5-|------0--------0---|
|--6--------6--------|----1---1----1---1-|
|--------------------|--3--------1-------|
|
|  E E  E E E E  E E    E E E E  E E E E
|----0----0---0----0-|-------------------|
|-------2--------2---|------2--------2---|
|--2--------2--------|--1-2---2--1-2---2-|
|--------------------|-------------------|
|--------------------|-------------------|
|--------------------|-------------------|
|
|  Q    H        Q      H        H
|------12------------|-------------------|
|---------------14---|-14-------12-------|
|-14-----------------|-------------------|
|--------------------|-------------------|
|--------------------|-------------------|
|--------------------|-------------------|


   E E  E E E E  E E    E E  E  E E E E  E
|--------------------|---------------------|
|--------------------|---------------------|
|-------3--------3---|---------------------|
|----5----5---5----5-|-------0--------0----|
|--6--------6--------|----1-----1---1----1-|
|--------------------|--3---------1--------|
|
|  E E  E E E E  E E    E E  E  E E E E  E
|----0----0---0----0-|---------------------|
|-------2--------2---|-------2--------2----|
|--2--------2--------|--1-2-----2-1-2----2-|
|--------------------|---------------------|
|--------------------|---------------------|
|--------------------|---------------------|
|
|  Q    H        Q      Q    E  H        S
|------12------------|---------------------|
|---------------14---|-14---15-14-------12-|
|-14-----------------|---------------------|
|--------------------|---------------------|
|--------------------|---------------------|
|--------------------|---------------------|


   E E  E E E E  E E    E E E E  E E E E
|--------------------|-------------------|
|--------------------|-------------------|
|-------3--------3---|-------------------|
|----5----5---5----5-|------0--------0---|
|--6--------6--------|----1---1----1---1-|
|--------------------|--3--------1-------|
|
|  E E  E E E E  E E    E E E E  E E E E
|----0----0---0----0-|-------------------|
|-------2--------2---|------2--------2---|
|--2--------2--------|--1-2---2--1-2---2-|
|--------------------|-------------------|
|--------------------|-------------------|
|--------------------|-------------------|
|
|  Q    H        Q      H        H
|------12------------|-------------------|
|---------------14---|-14-------12-------|
|-14-----------------|-------------------|
|--------------------|-------------------|
|--------------------|-------------------|
|--------------------|-------------------|


   E E  E E E E  E E    E E E E  E E E E
|--------------------|-------------------|
|--------------------|-------------------|
|-------3--------3---|-------------------|
|----5----5---5----5-|------0--------0---|
|--6--------6--------|----1---1----1---1-|
|--------------------|--3--------1-------|
|
|  E E  E E E E  E E    E E E E  E E E E
|----0----0---0----0-|-------------------|
|-------2--------2---|------2--------2---|
|--2--------2--------|--1-2---2--1-2---2-|
|--------------------|-------------------|
|--------------------|-------------------|
|--------------------|-------------------|
|
|  Q    H        Q      H        H
|------12------------|-------------------|
|---------------14---|-14-------12-------|
|-14-----------------|-------------------|
|--------------------|-------------------|
|--------------------|-------------------|
|--------------------|-------------------|


   E E  E E E E  E E    E E E E  E E E E
|--------------------|-------------------|
|--------------------|-------------------|
|-------3--------3---|-------------------|
|----5----5---5----5-|------0--------0---|
|--6--------6--------|----1---1----1---1-|
|--------------------|--3--------1-------|
|
|  E E  E E E E  E E    E E E E  E E E E
|----0----0---0----0-|-------------------|
|-------2--------2---|------2--------2---|
|--2--------2--------|--1-2---2--1-2---2-|
|--------------------|-------------------|
|--------------------|-------------------|
|--------------------|-------------------|
|
|  Q    H        Q      H        H
|------12------------|-------------------|
|---------------14---|-14-------12-------|
|-14-----------------|-------------------|
|--------------------|-------------------|
|--------------------|-------------------|
|--------------------|-------------------|


   E E  E E E E  E E    E E  E E  E E  E E
|--------------------|---------------------|
|--------------------|---------------------|
|-------3--------3---|---------------------|
|----5----5---5----5-|-------0---------0---|
|--6--------6--------|----1----1----1----1-|
|--------------------|--3---------1--------|
|
|  E E  E E E E  E E    E E  E E  E E  E E
|----0----0---0----0-|---------------------|
|-------2--------2---|-------2---------2---|
|--2--------2--------|--1-2----2--1-2----2-|
|--------------------|---------------------|
|--------------------|---------------------|
|--------------------|---------------------|
|
|  Q    H        Q      Q    Q    Q    Q
|--------------------|---------------------|
|-15---14-------14---|-15---14---12---14---|
|--------------------|---------------------|
|--------------------|---------------------|
|--------------------|---------------------|
|--------------------|---------------------|


   E E  E E  E E  E E    E E  E E  E E  E E
|---------------------|---------------------|
|---------------------|---------------------|
|-------3---------3---|---------------------|
|----5----5----5----5-|-------0---------0---|
|--6---------6--------|----1----1----1----1-|
|---------------------|--3---------1--------|
|
|  E E  E E  E E  E E    E E  E E  E E  E E
|----0----0----0----0-|---------------------|
|-------2---------2---|-------2---------2---|
|--2---------2--------|--1-2----2--1-2----2-|
|---------------------|---------------------|
|---------------------|---------------------|
|---------------------|---------------------|
|
|  Q    Q    Q    Q      Q    Q    Q    Q
|------12-------------|---------------------|
|-----------14---12---|-15---14---12---14---|
|-14------------------|---------------------|
|---------------------|---------------------|
|---------------------|---------------------|
|---------------------|---------------------|


   E E  E E  E E  E E    E E  E E  E E  E E
|---------------------|---------------------|
|---------------------|---------------------|
|-------3---------3---|---------------------|
|----5----5----5----5-|-------0---------0---|
|--6---------6--------|----1----1----1----1-|
|---------------------|--3---------1--------|
|
|  E E  E E  E E  E E    E E  E E  E E  E E
|----0----0----0----0-|---------------------|
|-------2---------2---|-------2---------2---|
|--2---------2--------|--1-2----2--1-2----2-|
|---------------------|---------------------|
|---------------------|---------------------|
|---------------------|---------------------|
|
|  Q    Q    Q    Q      Q    Q    Q    Q
|------12-------------|---------------------|
|-----------14---12---|-15---14---12---14---|
|-14------------------|---------------------|
|---------------------|---------------------|
|---------------------|---------------------|
|---------------------|---------------------|


   E E  E E E E  E E    E E  E E  E E  E E
|--------------------|---------------------|
|--------------------|---------------------|
|-------3--------3---|---------------------|
|----5----5---5----5-|-------0---------0---|
|--6--------6--------|----1----1----1----1-|
|--------------------|--3---------1--------|
|
|  E E  E E E E  E E    E E  E E  E E  E E
|----0----0---0----0-|---------------------|
|-------2--------2---|-------2---------2---|
|--2--------2--------|--1-2----2--1-2----2-|
|--------------------|---------------------|
|--------------------|---------------------|
|--------------------|---------------------|
|
|  Q    H        Q      Q    Q    Q    Q
|------12------------|---------------------|
|---------------14---|-14---15---14---12---|
|-14-----------------|---------------------|
|--------------------|---------------------|
|--------------------|---------------------|
|--------------------|---------------------|


   E E  E E E E  E E    E E  E E  E E  E E
|--------------------|---------------------|
|--------------------|---------------------|
|-------3--------3---|---------------------|
|----5----5---5----5-|-------0---------0---|
|--6--------6--------|----1----1----1----1-|
|--------------------|--3---------1--------|
|
|  E E  E E E E  E E    E E  E E  E E  E E
|----0----0---0----0-|---------------------|
|-------2--------2---|-------2---------2---|
|--2--------2--------|--1-2----2--1-2----2-|
|--------------------|---------------------|
|--------------------|---------------------|
|--------------------|---------------------|
|
|  Q    H        Q      Q    Q    Q    Q
|------12------------|---------------------|
|---------------14---|-15---14---12---14---|
|-14-----------------|---------------------|
|--------------------|---------------------|
|--------------------|---------------------|
|--------------------|---------------------|


  E E E E E E E E   E E E E E E E E   E E E E E E E E   E E E E E E E E
|-----------------|-----------------|-----------------|-----------------|
|-----------------|-----------------|-----------------|-----------------|
|-----3-------3---|-----------------|-----3-------3---|-----------------|
|---5---5---5---5-|-----0-------0---|---5---5---5---5-|-----0-------0---|
|-6-------6-------|---1---1---1---1-|-6-------6-------|---1---1---1---1-|
|-----------------|-3-------1-------|-----------------|-3-------1-------|
|
| E E E E E E E E   E E E E E E E E   E E E E E E E E   E E E E E E E E
|---0---0---0---0-|-----------------|---0---0---0---0-|-----------------|
|-----2-------2---|-----2-------2---|-----2-------2---|-----2-------2---|
|-2-------2-------|-1-2---2-1-2---2-|-2-------2-------|-1-2---2-1-2---2-|
|-----------------|-----------------|-----------------|-----------------|
|-----------------|-----------------|-----------------|-----------------|
|-----------------|-----------------|-----------------|-----------------|
|
| Gtr I
| <
| E E E E E E E E   E E E E E E E E   E E E E E E E E   E E E E E E E E
|-----------------|-----------------|-----------------|-----------------|
|-----------------|-----------------|-----------------|-----------------|
|-3-3-3-3-3-3-3-3-|-----------------|-3-3-3-3-3-3-3-3-|-----------------|
|-5-5-5-5-5-5-5-5-|-1-1-1-1-1-1-1-1-|-5-5-5-5-5-5-5-5-|-1-1-1-1-1-1-1-1-|
|-6-6-6-6-6-6-6-6-|-1-1-1-1-1-1-1-1-|-6-6-6-6-6-6-6-6-|-1-1-1-1-1-1-1-1-|
|-----------------|-3-3-3-3-1-1-1-1-|-----------------|-3-3-3-3-1-1-1-1-|


  E E E E E E E E   E E E E E E E E   E E E E E E E E   E E E E E E E E
|-----------------|-----------------|-----------------|-----------------|
|-----------------|-----------------|-----------------|-----------------|
|-----3-------3---|-----------------|-----3-------3---|-----------------|
|---5---5---5---5-|-----0-------0---|---5---5---5---5-|-----0-------0---|
|-6-------6-------|---1---1---1---1-|-6-------6-------|---1---1---1---1-|
|-----------------|-3-------1-------|-----------------|-3-------1-------|
|
| E E E E E E E E   E E E E E E E E   E E E E E E E E   E E E E E E E E
|---0---0---0---0-|-----------------|---0---0---0---0-|-----------------|
|-----2-------2---|-----2-------2---|-----2-------2---|-----2-------2---|
|-2-------2-------|-1-2---2-1-2---2-|-2-------2-------|-1-2---2-1-2---2-|
|-----------------|-----------------|-----------------|-----------------|
|-----------------|-----------------|-----------------|-----------------|
|-----------------|-----------------|-----------------|-----------------|
|
| <
| E E E E E E E E   E E E E E E E E   E E E E E E E E   E E E E E E E E
|-----------------|-----------------|-----------------|-----------------|
|-----------------|-----------------|-----------------|-----------------|
|-3-3-3-3-3-3-3-3-|-----------------|-3-3-3-3-3-3-3-3-|-----------------|
|-5-5-5-5-5-5-5-5-|-1-1-1-1-1-1-1-1-|-5-5-5-5-5-5-5-5-|-1-1-1-1-1-1-1-1-|
|-6-6-6-6-6-6-6-6-|-1-1-1-1-1-1-1-1-|-6-6-6-6-6-6-6-6-|-1-1-1-1-1-1-1-1-|
|-----------------|-3-3-3-3-1-1-1-1-|-----------------|-3-3-3-3-1-1-1-1-|


  Gtr I
  E E E E E E E E   E E E E E E E E   E E E E E E E E   E E E E E E E E
|-----------------|-----------------|-----------------|-----------------|
|-----------------|-----------------|-----------------|-----------------|
|-----3-------3---|-----------------|-----3-------3---|-----------------|
|---5---5---5---5-|-----0-------0---|---5---5---5---5-|-----0-------0---|
|-6-------6-------|---1---1---1---1-|-6-------6-------|---1---1---1---1-|
|-----------------|-3-------1-------|-----------------|-3-------1-------|
|
| Gtr II
| E E E E E E E E   E E E E E E E E   E E E E E E E E   E E E E E E E E
|-0-0-0-0-0-0-0-0-|-0-0-0-0-0-0-0-0-|-0-0-0-0-0-0-0-0-|-0-0-0-0-0-0-0-0-|
|-2-2-2-2-2-2-2-2-|-2-2-2-2-2-2-2-2-|-2-2-2-2-2-2-2-2-|-2-2-2-2-2-2-2-2-|
|-2-2-2-2-2-2-2-2-|-2-2-2-2-2-2-2-2-|-2-2-2-2-2-2-2-2-|-2-2-2-2-2-2-2-2-|
|-0-0-0-0-0-0-0-0-|-2-2-2-2-2-2-2-2-|-0-0-0-0-0-0-0-0-|-2-2-2-2-2-2-2-2-|
|-----------------|-0-0-0-0-0-0-0-0-|-----------------|-0-0-0-0-0-0-0-0-|
|-----------------|-----------------|-----------------|-----------------|


  E E E E E E E E   E E E E E E E E   E E E E E E E E   E E E E E E E E
|-----------------|-----------------|-----------------|-----------------|
|-----------------|-----------------|-----------------|-----------------|
|-----3-------3---|-----------------|-----3-------3---|-----------------|
|---5---5---5---5-|-----0-------0---|---5---5---5---5-|-----0-------0---|
|-6-------6-------|---1---1---1---1-|-6-------6-------|---1---1---1---1-|
|-----------------|-3-------1-------|-----------------|-3-------1-------|
|
| E E E E E E E E   E E E E E E E E   E E E E E E E E   E E E E E E E E
|-0-0-0-0-0-0-0-0-|-0-0-0-0-0-0-0-0-|-0-0-0-0-0-0-0-0-|-0-0-0-0-0-0-0-0-|
|-2-2-2-2-2-2-2-2-|-2-2-2-2-2-2-2-2-|-2-2-2-2-2-2-2-2-|-2-2-2-2-2-2-2-2-|
|-2-2-2-2-2-2-2-2-|-2-2-2-2-2-2-2-2-|-2-2-2-2-2-2-2-2-|-2-2-2-2-2-2-2-2-|
|-0-0-0-0-0-0-0-0-|-2-2-2-2-2-2-2-2-|-0-0-0-0-0-0-0-0-|-2-2-2-2-2-2-2-2-|
|-----------------|-0-0-0-0-0-0-0-0-|-----------------|-0-0-0-0-0-0-0-0-|
|-----------------|-----------------|-----------------|-----------------|


  W          +W
|----------|------------*|-|
|----------|------------*|-|
|-3--------|-(3)--------*|-|
|-5--------|-(5)--------*|-|
|-6--------|-(6)--------*|-|
|----------|------------*|-|
|
| W          +W
|-0--------|-(0)--------*|-|
|-2--------|-(2)--------*|-|
|-2--------|-(2)--------*|-|
|-0--------|------------*|-|
|----------|------------*|-|
|----------|------------*|-|


Duration Legend
---------------
W - whole; H - half; Q - quarter; E - 8th; S - 16th; T - 32nd; X - 64th; a - acciaccatura
+ - note tied to previous; . - note dotted; .. - note double dotted
Uncapitalized letters represent notes that are staccato (1/2 duration)
Irregular groupings are notated above the duration line
Duration letters will always appear directly above the note/fret number it represents the
duration for.  Duration letters with no fret number below them represent rests.  Multi-
bar rests are notated in the form Wxn, where n is the number of bars to rest for.  Low
melody durations appear below the staff
Добавлено: 16.09.2013
Другие материалы по этой песне:
  • Аккорды и текст

Страница создана 16.09.2013
http://primanota.ru/misc-unsigned-bands/park-jefferson-couches-chords.htm
Привет, Гость.
Предлагаем пройти революционный курс по гитаре.
Подарок от PrimaNota.Ru, забирай!