PrimaNota.ru - самый крупный в мире бесплатный архив песенных текстов, аккордов, табулатур и нот


Misc Unsigned Bands - Only The Young - I Do - аккорды и текст, видео

Регистрация Запомнить меня
Войти через:  Facebook Google Twitter Vk Yandex Mail.ru

Misc Unsigned Bands - Only The Young - I Do - аккорды и текст, видео

Печатать
Просмотров: 72
Only The Young - I Do
Misc Unsigned Bands
Only The Young - I do

STANDARD TUNING

CAPO I

[INTRO] 

    D                     D                                                          
e|---------------------------------------------------------------------------|
B|------3-3--------3-3--------3-3--------3-3---------------------------------|
G|----2-----2----2-----2----2-----2----2-----2-------------------------------|
D|--0----------0----------0----------0---------------------------------------|
A|---------------------------------------------------------------------------|
E|---------------------------------------------------------------------------|

[VERSE 2]

    D                                E          A
e|---------------------------------------------------------------------------|
B|------3-3--------3-3--------3-3--------0-0--------2-2--------2-2-----------|
G|----2-----2----2-----2----2-----2----1-----1----2-----2----2-----2---------|
D|--0----------0----------0----------2----------2----------2-----------------|
A|---------------------------------------------------------------------------|
E|---------------------------------------------------------------------------|

e|---------------------------------------------------------------------------|
B|------2-2--------2-2-------------------------------------------------------|
G|----2-----2----2-----2-----------------------------------------------------|
D|--2----------2-------------------------------------------------------------|
A|---------------------------------------------------------------------------|
E|---------------------------------------------------------------------------|

(played as tab)
   D                                     E                A
Standing at the alter, in a white dress on her wedding day
   D                                                E              A
I'd sell my house to hold her, how could that man have walked away
   D                                     E              A
It was such a pity, she could light the city with her eyes,
   D                                         E                A
I want her but its tricky, coz she is so dam pretty I could die,

[PRECHORUS]
F#m                   E
I wish that ya knew my name

[CHORUS] (Strummed)
   D                          A
If I had the chance I would kiss ya
  D                    A
I'd marry you now If I knew
    D                          A
That one day they'd be out the picture 
          F#m     E     A
& I'd say I do, I do I do

[VERSE 2] (played as tab)
   D                             E             A
Under estimating, forever second guessing myself
    D                                   E              A
Find it so frustrating, can't lose ya to someone else
   D                                         E                A
For better or for worse I would always put you first like that
   D                                           E                A
If I wrote you a note saying you're my universe would you write back

[PRECHORUS]
 F#m                      E
I wish that you knew my name

[CHORUS] (Strummed)
   D                         A
If I had the chance I would kiss ya
  D                    A
I'd marry you now If I knew
  D                              A
That one day they'd be out the picture 
          F#m    E    A
& I'd say I do, I do I do

  D                               A
and I would make friends with ya sister
  D                      A
and put in a good word or two
  D                           A
and I'd never leave cuz I'd miss ya 
             F#m    E    A
yeah I'd say I do I do I do

[VERSE 3] 
  E                                        D       D                                                    
Planned the perfect life, it's all up in my head now
  E                                        D     E
and I won't compromise, I'm giving you my last vow

[CHORUS]
   D                          A
If I had the chance I would kiss ya
  D                    A
I'd marry you now If I knew
   D                          A
That one day they'd be out the picture 
   E      F#m    E    A
& I'd say I do, i do i do

   D                          A
If I had the chance I would kiss ya
  D                    A
I'd marry you now If I knew
  D                           A
That one day they'd be out the picture 
          F#m    E    A
& I'd say I do, I do I do

  D                             A
and I would make friends with ya sister
  D                        A
and put in a good word or two
  D                          A
and I'd never leave cuz I'd miss ya 
           F#m    E    A
so I'd say I do I do I do
        F#m    E    A
I'd say I do I do I do
            F#m    E    A
and I'd say I do I do I do



Добавлено: 02.10.2015
Другие материалы по этой песне:
  • Аккорды и текст

Страница создана 02.10.2015
http://primanota.ru/misc-unsigned-bands/only-young-i-do-chords.htm
Привет, Гость.
Предлагаем пройти революционный курс по гитаре.
Подарок от PrimaNota.Ru, забирай!