PrimaNota.ru - самый крупный в мире бесплатный архив песенных текстов, аккордов, табулатур и нот


Misc Unsigned Bands - One Piece - Binks Sake - таба, видео

Регистрация Запомнить меня
Войти через:  Facebook Google Twitter Vk Yandex Mail.ru

Misc Unsigned Bands - One Piece - Binks Sake - таба, видео

Печатать
Просмотров: 52
This is my very first tabs ^^ so be nice 2 me =P!!
 



Intro

|--------------------------|-----------------------------|  (x2)
|--8-11-11-11--13-11-8-11--|-8-11-11-11--13-11-8---------|
|--------------------------|---------------------8-------|
|--------------------------|-----------------------------|
|--------------------------|-----------------------------|
|--------------------------|-----------------------------|

Verse

|--------------------------|-----------------------------|  
|--11-8--------------11-8--|-----------------------------|
|-------10-8----8-10-------|-10-8----8------8------------|
|------------10------------|------10---8-10---8-10-------|
|--------------------------|-----------------------------|
|--------------------------|-----------------------------|


|--------------------------|   
|---------8-8--------------|  
|-8-10-8--------10-8-10----|  
|--------------------------|
|--------------------------|
|--------------------------|

Play verse untill end then change the last tab too 8 like this

|---------------------------|   
|----------8-8--------------|  
|--8-10-8--------10-8-8-----|  
|---------------------------|
|---------------------------|
|---------------------------|


// Pirat-kirby
Добавлено: 22.10.2013
Другие материалы по этой песне:
  • Аккорды и текст

Страница создана 22.10.2013
http://primanota.ru/misc-unsigned-bands/one-piece-binks-sake-chords.htm
Привет, Гость.
Предлагаем пройти революционный курс по гитаре.
Подарок от PrimaNota.Ru, забирай!