PrimaNota.ru - самый крупный в мире бесплатный архив песенных текстов, аккордов, табулатур и нот


Misc Unsigned Bands - My Strange Addiction - Inject The Poison Solos 12 - таба

Регистрация Запомнить меня
Войти через:  Facebook Google Twitter Vk Yandex Mail.ru

Misc Unsigned Bands - My Strange Addiction - Inject The Poison Solos 12 - таба

Печатать
Просмотров: 60
These are the solos 1 & 2

Guitar Solo #1 (Just play the Breakdown Riff 4 times while the solo plays):

E|---------------------------------------------------------------------|
B|-15b~-15b~-15b~-15br13h15~~--12h13h15p13p12--12----------------------|
G|-------------------------------------------14--14p12\11h12p11--------|
D|-------------------------------------------------------------12/14~~-|
A|---------------------------------------------------------------------|
E|---------------------------------------------------------------------|

E|------------------------------------12~-15p12-12-15p12-12-15p12-|
B|---------------------12--12h14p12h14----------------------------|
G|------12--12h14p12h14--14---------------------------------------|
D|-12h14--14------------------------------------------------------|
A|----------------------------------------------------------------|
E|----------------------------------------------------------------|

E|-17p14-14-17p14-14-17p14-19p15-15-19p15-15-19p15-20p17-20p17-20p17-20p17-|
B|-------------------------------------------------------------------------|
G|-------------------------------------------------------------------------|
D|-------------------------------------------------------------------------|
A|-------------------------------------------------------------------------|
E|-------------------------------------------------------------------------|

A.J. Uses a bit of Wah here:
                         ^^^^^^^^^^^^^^^^^^^^^^^^^^^^^^^^^^^^^^^^^^^^^^^^^^^^
E|-----------------------10p8p710p8p710p8p710p8p712p10p912p10p912p10p912p10p9-|
B|-9b~-9b~-9b~-9b----7~~------------------------------------------------------|
G|-9b~-9b~-9b~-9br7h9---------------------------------------------------------|
D|----------------------------------------------------------------------------|
A|----------------------------------------------------------------------------|
E|----------------------------------------------------------------------------|

   ^^^^^^^^^^^^^^^^^^^^^^^^^^^^^^^^^^^^^^^^^^^^^^^^^^^^^^^^^^^^^^^^^^^^^^^^
E|-14p12p1114p12p1114p12p1114p12p1115p13p1215p13p1220p19p1719p18p1618p17p15--|
B|---------------------------------------------------------------------------|
G|---------------------------------------------------------------------------|
D|---------------------------------------------------------------------------|
A|---------------------------------------------------------------------------|
E|---------------------------------------------------------------------------|

   ^^^^^^^^^^^^^^^^^^^^^^^^^
E|-17p16p1416p15p13p12121212\\\\\\\\\\---------------------------------------|
B|---------------------------------------------------------------------------|
G|---------------------------------------------------------------------------|
D|---------------------------------------------------------------------------|
A|---------------------------------------------------------------------------|
E|---------------------------------------------------------------End Of Solo-|




Guitar Solo #2(Just play power chords while solo is played (A,G,F,G):

E|-----------------10---------------------------------------10---------|
B|-10~--12-12/13~----12h13-----15br-15brp13\10~--12-12/13~----12h13----|
G|------------------------10~--------------------------------------10~-|
D|---------------------------------------------------------------------|
A|---------------------------------------------------------------------|
E|---------------------------------------------------------------------|

E|-17-15-13-12-12h13p12-------------------------------------------------------|
B|---------------------13p12/17~-------------------------------------12br\10~-|
G|----------------------------------------------------12--12h14p12h14---------|
D|-------------------------------------12--12h14p12h14--14--------------------|
A|--------------------------------12h15--15-----------------------------------|
E|----------------------------------------------------------------------------|


Melody X4:

Part 1

E|----------------------------------15---15---15---15-------------|
B|-10~--12/13p12--12h13-12-------15b--15b--15b--15b--15brp13/10~--|
G|-------------------------10~------------------------------------|
D|----------------------------------------------------------------| X2
A|----------------------------------------------------------------|
E|----------------------------------------------------------------|

Part 2

E|--------------------------------------------------------------------------|
B|-10-10-13p12p10-13p12p10-13p12p10-13p12p10-8~--13p12p10-13p12p10-13p12p10-|
G|--------------------------------------------------------------------------|
D|--------------------------------------------------------------------------|
A|--------------------------------------------------------------------------|
E|--------------------------------------------------------------------------|

E|---------------------------------------------------------------------------|
B|-13p12p10-8-----13p12p10-13p12p10-13p12p10-13p12p10-8~--------8/12\10~-----|
G|-----------10~------------------------------------------7h8h10-------------|
D|---------------------------------------------------------------------------|X2
A|---------------------------------------------------------------------------|
E|---------------------------------------------------------------------------|
Добавлено: 07.10.2013
Другие материалы по этой песне:
  • Аккорды и текст

Страница создана 07.10.2013
http://primanota.ru/misc-unsigned-bands/my-strange-addiction-inject-the-poison-solos-12-chords.htm
Привет, Гость.
Предлагаем пройти революционный курс по гитаре.
Подарок от PrimaNota.Ru, забирай!