PrimaNota.ru - самый крупный в мире бесплатный архив песенных текстов, аккордов, табулатур и нот


Misc Unsigned Bands - Mortal Kombat - Mortal Kombat Theme - бас-таба, видео

Регистрация Запомнить меня
Войти через:  Facebook Google Twitter Vk Yandex Mail.ru

Misc Unsigned Bands - Mortal Kombat - Mortal Kombat Theme - бас-таба, видео

Печатать
Просмотров: 59
Уроки эстрадного вокала в Санкт-Петербурге
this is the whole theme for Mortal Kombat, it goes right along with the theme from the
game! enjoy.

Standard Tuning

There are 16 dashes per measure, so you can tell where the rhythm is, but also so i
fit in triplets lol. if you don't recognize it right off the bat then work on it and try to
it faster. there are certain parts that you can octave down, like the second riff that 
cool. and if you have a five string theres just that much more opportunity to octave
down :P

Main Riff (2x)     (those are 10's)
E|----5---7---9-7-|----9---12--9---|----4---5---7-5-|----2---5---5-4-|
A|7-7---7---7-----|1010--10--10-10-|5-5---5---5-----|3-3---3---3-----|
D|----------------|----------------|----------------|----------------|
G|----------------|----------------|----------------|----------------|
  1   2   3   4    1   2   3   4    1   2   3   4    1   2   3   4

Second Riff (2x)
E|--------------5-|----------------|--------------5-|----------------|
A|7--7--7--7--5---|7--7--7--7--5---|7--7--7--7--5---|7--7--7-77-77---|
D|----------------|--------------7-|----------------|----------------|
G|----------------|----------------|----------------|----------------|
  1   2   3   4    1   2   3   4    1   2   3   4    1   2   3   4

Third Riff (2x & the second A7 to E5 is slightly delayed, not right on beat)
E|-9-5------5-----|-9-5------5-----|-9-5------5-----|-9-5------------|
A|7-7--78--7--785-|7-7--78--7--785-|7-7--78--7--785-|7-7--7-5-5-77---|
D|----------------|----------------|----------------|----------------|
G|----------------|----------------|----------------|----------------|
  1   2   3   4    1   2   3   4    1   2   3   4    1   2   3   4

during the "chorus" i guess is what you'd call it... when he names the fighters, there's
few different guitar parts goin, but i'd just say go ahead and make up your own :] make
a solo.

if you find any major mistakes lemme know, i did this pretty quick and prob did a few typos.
Добавлено: 12.01.2014
Другие материалы по этой песне:
  • Аккорды и текст

Страница создана 12.01.2014
http://primanota.ru/misc-unsigned-bands/mortal-kombat-mortal-kombat-theme-chords.htm
Привет, Гость.
Предлагаем пройти революционный курс по гитаре.
Подарок от PrimaNota.Ru, забирай!