PrimaNota.ru - самый крупный в мире бесплатный архив песенных текстов, аккордов, табулатур и нот


Misc Unsigned Bands - Mollys Nightmare - Halloween - таба

Регистрация Запомнить меня
Войти через:  Facebook Google Twitter Vk Yandex Mail.ru

Misc Unsigned Bands - Mollys Nightmare - Halloween - таба

Печатать
Просмотров: 35
Drop D
INTRO:

Guitar 1
E------5-----5----------5-----5------|
B----3-----3-----3----3-----3-----3--|
G--2-----2-----2----3-----3-----3----| 5x
D------------------------------------|
A------------------------------------|
D------------------------------------|

After 2 times above, Guitar 2 comes in with:

Guitar 2
E------------------------------------|
B------------------------------------|
G--2-2-2-2-2-2-2-2--3-3-3-3-3-3-3-3--| 3x
D--0-0-0-0-0-0-0-0--x-x-x-x-x-x-x-x--|
A--0-0-0-0-0-0-0-0--1-1-1-1-1-1-1-1--|
D--0-0-0-0-0-0-0-0-------------------|

then

Guitar 1
E------5-----5----------5-----------------|
B----3-----3-----3----3-------------------|
G--2-----2-----2----3-----3---------------|
D-----------------------------------------|
A----------------------------Pickslide----|
D----------------------------Pickslide----|

Guitar 2
E------------------------------------------|
B------------------------------------------|
G--2-2-2-2-2-2-2-2--3-3-3-3----------------|
D--0-0-0-0-0-0-0-0--x-x-x-x----------------|
A--0-0-0-0-0-0-0-0--1-1-1-1---Pickslide----|
D--0-0-0-0-0-0-0-0------------Pickslide----|


VERSE: (Guitar 2 - palm mute x
Добавлено: 13.10.2013
Другие материалы по этой песне:
  • Аккорды и текст

Страница создана 13.10.2013
http://primanota.ru/misc-unsigned-bands/mollys-nightmare-halloween-chords.htm
Привет, Гость.
Предлагаем пройти революционный курс по гитаре.
Подарок от PrimaNota.Ru, забирай!