PrimaNota.ru - самый крупный в мире бесплатный архив песенных текстов, аккордов, табулатур и нот


Misc Unsigned Bands - Mi Noog - Sudden Rush - аккорды и текст

Регистрация Запомнить меня
Войти через:  Facebook Google Twitter Vk Yandex Mail.ru

Misc Unsigned Bands - Mi Noog - Sudden Rush - аккорды и текст

Печатать
Просмотров: 47
Mi Noog - Sudden Rush
Misc Unsigned Bands
Mi Noog-Sudden Rush
Tabbed by ajl.11

Capo: 2nd fret
Picking intro: Am7, F7M  , C, G [2xs]
Strumming: Am, F7M  , C, G [D DU UUDU]


Am
Kuv tau hais rau kuv tus kheej,
               F7M  
Kuv yuav ua ib siab tsis nco koj lawm
               C
Kuv yuav ua ib siab tso koj mus
                   G
Vim txoj hmoo tsis txog
          Am
Txawm sib hlub npaum li cas,
                 F7M  
Los tsis muaj ib hnub yuav tau nyob ua ke
            C                G 
Zaum no kuv yuav tau tso koj mus
           Am 
Kuv tus mi noog,
            F7M            C
Ziag no kuv yuav qheb qhov rooj
           G 
Es cia koj ya
Am    F7M          

          Am
Thaum kuv hais koj,
               F7M  
Baby thaum kuv hais koj...
       C
Tias kuv tsis hlub koj lawm mog,
             G
Yuav mob kuv lub siab npaum li cas
         Am
Koj puas paub tias,
              F7M  
Baby koj puas paub tias...

C                                      G 
Kuv yeej tig tsis tau los ntsia koj ib muag

Tsam thaum ntawv ces koj...
Am
Pom kuv kua muag los
   
Am    
Kuv yuav mus nyob ib leeg
                     
              F7M  
Kuv yuav tsis mus hlub lwm tus
                      
             C
Kom tas tiam no,

Mus rau lwm tiam...
                 
          G
Los tseem tos
             
        Am                        F7M  
Seb kuv tus mi noog puas yuav rov los
                              C
Ya los tsaws hauv kuv lub xub ntiag
            G
Thaum ntawv ces kuv yuav puag nws ruaj


          Am
Thaum kuv hais koj,
               F7M  
Baby thaum kuv hais koj...
     C
Tias kuv tsis hlub koj lawm mog,
             G
Yuav mob kuv lub siab npaum li cas
              
         Am
Koj puas paub tias,
              F7M  
Baby koj puas paub tias...

 C                                     G 
Kuv yeej tig tsis tau los ntsia koj ib muag

Tsam thaum ntawv ces koj...
Am
Pom kuv kua muag los
F7M     C   G  
Am  F7M    C   G   

      Am
Txij ziag no...

Mus txog...
F7M  
Thaum nws rov los
                           C
Thov lub ntuj cia tus neeg kuv hlub...
     G
Cia nws nyob kaj siab lug

Cia nws nyob luag ntxhi tas mus li
     Am
Cia kuv nco nws xwb...
    F7M  
Cia kev mob siab...
C
Rau kuv ib leeg

G 
Vim kuv hub nws
Am
Vim kuv hlub nws


------------------------------------------------------

Guitar Chords:
Picking: Intro
Am7--pluck  strings 5,2,3,4, downstroke sweep
E---------0-------------------------------------
B---------1------------------------------------
G---------2------------------------------------
D---------0-------------------------------------
A---------0-------------------------------------
E---------0-------------------------------------

F7M  --pluck  strings 5,2,3,4, downstroke sweep
C--pluck  strings 5,4,2,3, downstroke sweep
G--pluck strings 6,2,3,4, downstroke sweep

Strumming: All of the verses 
Pattern: D DU UUDU

Am
E---------0-------------------------------------
B---------1------------------------------------
G---------2-----------------------------------
D---------2-----------------------------------
A---------0-------------------------------------
E---------0-------------------------------------

F7M  
E---------0-------------------------------------
B---------1------------------------------------
G---------2-----------------------------------
D---------3-----------------------------------
A---------0-------------------------------------
E---------0-------------------------------------

C
E---------0-------------------------------------
B---------1-------------------------------------
G---------0-------------------------------------
D---------2-------------------------------------
A---------3-------------------------------------
E---------0-------------------------------------

G
E---------3-------------------------------------
B---------2-------------------------------------
G---------0-------------------------------------
D---------0-------------------------------------
A---------3-------------------------------------
E---------3-------------------------------------

Добавлено: 10.08.2013
Другие материалы по этой песне:
  • Аккорды и текст

Страница создана 10.08.2013
http://primanota.ru/misc-unsigned-bands/mi-noog-sudden-rush-chords.htm
Привет, Гость.
Предлагаем пройти революционный курс по гитаре.
Подарок от PrimaNota.Ru, забирай!