PrimaNota.ru - самый крупный в мире бесплатный архив песенных текстов, аккордов, табулатур и нот


Misc Unsigned Bands - Mezmorized - Carnival Of Fools - таба

Регистрация Запомнить меня
Войти через:  Facebook Google Twitter Vk Yandex Mail.ru

Misc Unsigned Bands - Mezmorized - Carnival Of Fools - таба

Печатать
Просмотров: 43
-------------------------------------------------------------------------------
                            Carnival of Fools , Mezmorized
-------------------------------------------------------------------------------
Christian band , rock, my youth group leader.


Tabbed by:Nick
Email:

Tuning:regular

Note this is my first tab and i do not know the whole song but this is a fun part.

Medium distortion through whole song.

e|-------------------------------------------------------------------------|
B|-------------------------------------------------------------------------|
G|-4-5-4-----4-5-4---------------------------------------------------------|
D|-------7-6-------7-6-3-----------------2-3-2---2-3-1---2-1-0-------------|
A|-----------------------7-5-3-------0-3--------------------------------3--|
E|-----------------------------7-5-4-----------4-------3-------2-1p0--5----|

e|----------------------------------------------------------------------|
B|----------------------------------------------------------------------|
G|----------------------------------------------------------------------|
D|------------------------------------2-3-2---2-3-1---2-1-0-------------|
A|------7-------6-------5---3-2---0-3--------------------------------3--|
E|6-5-4---5-4-3---4-3-2---------------------4-------3-------2-1p0--5----|

e|----------------------------------------------------------------------|
B|----------------------------------------------------------------------|
G|----------------------------------------------------------------------|
D|-------------------------------3---------------9-----7----------------|
A|-------7-------6-------5--3-2--1--1-3-2--------7---5---5-8-7-------7--|
E|-6-5-4---5-4-3---4-3-2------------------3--0-----------------8-5---4--|

e|------------------------------------------------------------------|
B|------------------------------------------------------------------|
G|------------------------------------------------------------------|
D|-(pm)------------------------------------55-----55-(endpm)-----3--|
A|-(pm)5555--7777-88-55----88-77-------77------66----(endpm)---1----|
E|-(pm)-----------------77-------55-88-------66------(endpm)--------|

e|--------------------------------------------------------------------------|
B|--------------------------------------------------------------------------|
G|--------------------------------------------------------------------------|
D|--------------9-----7------------------(pm)-------------------------------|
A|-1-3-2--------7---5---5-8-7-------7----(pm)--5555-7777-88-55----88-77-----|
E|-------3-0------------------8-1---4----(pm)------------------77-------55--|

e|-------------------------------------------------------------------------|
B|-------------------------------------------------------------------------|
G|--------------------------------------------------------------------5----|
D|--------66--------66-(endpm)-----7p5p3--------------------------5-6---7--|
A|----88-----55-88-----(endpm)-----------7-5-3--------------5-7-8----------|
E|-88------------------(endpm)-----------------7-5-4--5h7h8----------------|

pm = palm mute

p =pull off
h =hammer on


In Christ.
Добавлено: 26.02.2014
Другие материалы по этой песне:
  • Аккорды и текст

Страница создана 26.02.2014
http://primanota.ru/misc-unsigned-bands/mezmorized-carnival-of-fools-chords.htm
Привет, Гость.
Предлагаем пройти революционный курс по гитаре.
Подарок от PrimaNota.Ru, забирай!