PrimaNota.ru - самый крупный в мире бесплатный архив песенных текстов, аккордов, табулатур и нот


Misc Unsigned Bands - Meghan Tonjes - This Year - аккорды и текст

Регистрация Запомнить меня
Войти через:  Facebook Google Twitter Vk Yandex Mail.ru

Misc Unsigned Bands - Meghan Tonjes - This Year - аккорды и текст

Печатать
Просмотров: 123
Meghan Tonjes - This Year
Misc Unsigned Bands
-------------------------------------------------------------------------------
                            THIS YEAR - Meghan Tonjes
-------------------------------------------------------------------------------
Tabbed by: Maddie
E-mail: maddieissojokes@gmail.com

Tuning: CAPO on 5th fret


INTRO:
         Em7            Cadd9              D                G
e|---------------------------------------------------------------------------|
B|---------------------------------------------------------------------------|
G|---------------------------------------------------------------------------|
D|---------------------------------0-----------------------------------------|
A|------------------3--------------------------------------------------------|
E|------0--------------------------------------------3-----------------------|

VERSE 1:
         Em7             Cadd9                D                 G
e|---------------------------------------------------------------------------|
B|---------------------------------------------------------------------------|
G|---------------------------------------------------------------------------|    (x4)
D|---------------------------------0-----------------------------------------|
A|------------------3--------------------------------------------------------|
E|------0--------------------------------------------3-----------------------|
                                                         (Out on the open highway...)


JUST STRUM "Em7", "Cadd9", "D", "G" FOR THE REST OF THE SONG


LYRICS:
Out on the open highway
Out in the open air
See the world move beneath me
Leaving without a care.
I know just where I came from
But I don't know where I'll end
Only thing that I'm sure of
I'd do it all again.


I found a boy I could love
Maybe I found a few
Even with best intention
They never follow through.


If he could take my heart now
He'd put it right in her chest
Thinking he finally could have
A girl that he loved the best.

And I'm gonna be fine, fine, fine
I'm gonna be brilliant.

Chorus:

This year is gonna be better, and you're gonna see
This year I'm gonna be stronger, and a braver me
This year I'm gonna make it, 'cause I said I would
And do all the things you said I never could.

This Year, 
This Year.

I may not be perfection
I never claimed to be
Maybe if I was thinner
Beautiful classically.

Of all of the things I carry
All of the things I know
I know that I will be loved
No matter where I go.
And I'm gonna be fine, fine, fine
I'm just gonna be different.

Chorus

This Year. 
This Year.

Maybe you're the kind
Who needs light falling down
Maybe you're the kind
Who needs stars risen to the ground
Just to feel the things you wish for are coming true.

Sometimes it's hard to get up
Maybe its hard to speak
Think no one understands you
Feel like nobody sees

When the night's dark around you
With all of the things you've lost
You'll know the hope inside you
Sometimes is worth the cost.

And I'm gonna be fine, fine, fine
Because we'll be together.

Chorus x 2

This Year. 
This Year. 
Добавлено: 26.07.2013
Другие материалы по этой песне:
  • Аккорды и текст

Страница создана 26.07.2013
http://primanota.ru/misc-unsigned-bands/meghan-tonjes-this-year-chords.htm
Привет, Гость.
Предлагаем пройти революционный курс по гитаре.
Подарок от PrimaNota.Ru, забирай!