PrimaNota.ru - самый крупный в мире бесплатный архив песенных текстов, аккордов, табулатур и нот


Misc Unsigned Bands - Meanstreak - Roadkill - таба

Регистрация Запомнить меня
Войти через:  Facebook Google Twitter Vk Yandex Mail.ru

Misc Unsigned Bands - Meanstreak - Roadkill - таба

Печатать
Просмотров: 89
-------------------------------------------------------------------------------
                             Roadkill - Meanstreak
-------------------------------------------------------------------------------
Tabbed by: Shadow-Guitar

Tuning: E A D G B e



Intro:

e|---------------------------------------------------------------------------|
B|---------------------------------------------------------------------------|
G|---------------------------------------------------------------------------|
D|----------------------6-5-6-----------------------------4------------------|
A|-(h)------------------4-5-4----(h)----------------------2-5----------------|
E|-0-2-2-2-2-2-2-2-2-2-----------0-2-2-2-2-2-2-2-2-2-2-2----3----------------|
P.M  .................             .....................


Verse:

e|---------------------------------------------------------------------------|
B|---------------------------------------------------------------------------|
G|---------------------------------------------------------------------------|
D|-----------------------------------------------------6-7-6-----------------|
A|-(h)-------------(h)-------------(h)-----------------4-5-4-----------------|
E|-0-2-2-2-2-2-2-2-0-2-2-2-2-2-2-2-0-2-2-2-2-2-2-2-2-2-----------------------|
P.M  ..............  .............   .................

e|---------------------------------------------------------------------------|
B|---------------------------------------------------------------------------|
G|---------------------------------------------------------------------------|
D|-------------------------------------------------------------4-------------|
A|-(h)-------------(h)-----------------(h)---------------------2-5-----------|
E|-0-2-2-2-2-2-2-2-0-2-2-2-2-2-2-2-2-2-0-2-2-2-2-2-2-2-2-2-2-2---3-----------|
P.M  ..............  .................   .....................

Chorus:

e|---------------------------------------------------------------------------|
B|---------------------------------------------------------------------------|
G|---------------------------------------------------------------------------|
D|---------9/---(p)---(p)---(p)----------9-7-9-------------------------------|
A|---------7/---5-7---5-3---3-2----------7-5-7----8--------------------------|
E|-0-0-0-0----------0-----0------0-0-0-0----------6--------------------------|
P.M.......          .     .      .......

Guitar fill:

e|---------------------------------------------------------------------------|
B|---------------------------------------------------------------------------|
G|---------------------------------------------------------------------------|
D|-----------3-2-------------------------------------------------------------|
A|-------0-1-----1-----------------------------------------------------------|
E|-0-2-3---------------------------------------------------------------------|

Solo rhythm:

e|---------------------------------------------------------------------------|
B|---------------------------------------------------------------------------|
G|---------------------------------------------------------------------------|
D|---------------------------------------------------------------------------|
A|------------------7-5-2-4-------------------9-7-2-4------------------------|
E|-0-2-2-2-2-2-2-2--5-3-0-2-2-2-2-2-2-2-2-2---7-5-0-2------------------------|
P.M  ............           ...............  


************************************
P.M   Palm mute
| /   slide up
| \   slide down
| h   hammer-on
| p   pull-off
| ~   vibrato
| +   harmonic
| x   Mute note
| b   Bend
| pb  Pre-bend
| br  Bend release
| pbr Pre-bend release
| brb Bend release bend

************************************
Добавлено: 22.08.2015
Другие материалы по этой песне:

Страница создана 24.10.2013
http://primanota.ru/misc-unsigned-bands/meanstreak-roadkill-chords.htm
Привет, Гость.
Предлагаем пройти революционный курс по гитаре.
Подарок от PrimaNota.Ru, забирай!