PrimaNota.ru - самый крупный в мире бесплатный архив песенных текстов, аккордов, табулатур и нот


Misc Unsigned Bands - Mattrach - R2d2 - таба

Регистрация Запомнить меня
Войти через:  Facebook Google Twitter Vk Yandex Mail.ru

Misc Unsigned Bands - Mattrach - R2d2 - таба

Печатать
Просмотров: 42
Уроки эстрадного вокала в Санкт-Петербурге
Mattrach's song R2D2
Tabbed by:Jrms1000

   I played this in standard tuning, I dont know what he plays in!! Enjoy

   Slide from 7 for the first time only play this part 3x
E|-----------------------------17-15-14-12------------------------------------|
B|----------12-----14-----15--------------------------------------------------|
G|---7/11-----11------11------------------------------------------------------|
D|----------------------------------------------------------------------------|
A|----------------------------------------------------------------------------|
E|----------------------------------------------------------------------------|


E|------------------------------------------------------------------|
B|---------12-----14-----15-----------------------------------------|
G|-----11-----11-----11---------------------------------------------|
D|------------------------------------------------------------------|
A|------------------------------------------------------------------|
E|------------------------------------------------------------------|


E|--------------------------------------------------------------------------|
B|--------------------------------------------------------------------------|
G|---14/16---16/19/16/19/11---14-19-18-14-----------------------------------|
D|------------------------------------------------12h14h15------------------|
A|--------------------------------------------------------------------------|
E|--------------------------------------------------------------------------|

        Tap the 16 when you are doing the 9 half bend
E|-----------------------------------------------------------------|
B|-----------------------------------------------------------------|
G|--14/16---16/19/16/19/11---14-19-18-14-------9b16----------------|
D|----------------------------------------12-----------------------|
A|-----------------------------------------------------------------|
E|-----------------------------------------------------------------|

	Fade in on every note and hold the last 7
E|-------------------------------------------------|
B|-------------------------------------------------|
G|---16--11--7--9--11--12--16--11--7---------------|
D|-------------------------------------------------|
A|-------------------------------------------------|
E|-------------------------------------------------|

	repeat this part 2x
E|--------17---------------------------------------------------------------|
B|---15------14h15-12-----------15-----------------------------------------|
G|------------------------14--12------11---7h9/11--9--11/12/14-------------|
D|-------------------------------------------------------------------------|
A|-------------------------------------------------------------------------|
E|-------------------------------------------------------------------------|


E|-----------------------------17-15-14-12------------------------------------|
B|----------12-----14-----15--------------------------------------------------|
G|---7/11-----11------11------------------------------------------------------|
D|----------------------------------------------------------------------------|
A|----------------------------------------------------------------------------|
E|----------------------------------------------------------------------------|


E|------------------------------------------------------------------|
B|---------12-----14-----15-----------------------------------------|
G|-----11-----11-----11---------------------------------------------|
D|------------------------------------------------------------------|
A|------------------------------------------------------------------|
E|------------------------------------------------------------------|

    16 fades in, on 9 do a bend then go into a vibrato
E|--------------------------------------------------------------|
B|--------------------------------------------------------------|
G|---16---16/19/16/19/11---14-------------9~--------------------|
D|----------------------------------12--------------------------|
A|--------------------------------------------------------------|
E|--------------------------------------------------------------|


     Do the same thing with 9 as above
E|------------------------------------------------------------------------|
B|------------------------------------------------------------------------|
G|---16---16/19/16/19/11---14-19-18-14---14h16p14-----------------9~------|
D|-----------------------------------------------------------12-----------|
A|------------------------------------------------------------------------|
E|------------------------------------------------------------------------|


	Fade in on every note and hold the last 7
E|-------------------------------------------------|
B|-------------------------------------------------|
G|---16--11--7--9--11--12--16-19-11--7-------------|
D|-------------------------------------------------|
A|-------------------------------------------------|
E|-------------------------------------------------|


	 just hit 7 five times in a row
E|--------17----------------------------------------------------------------|
B|---15------14h15-12-----------15------------------------------------------|
G|------------------------14--12------11-7h7h7h7h7--9/11--9--11/12/14-------|
D|--------------------------------------------------------------------------|
A|--------------------------------------------------------------------------|
E|--------------------------------------------------------------------------|


e|-------17-17p15p14--------------------------------------------------------|
B|--15------------------15-14----------15-----------------------------------|
G|------------------------------14--12------11-19--7h9/11-9h11/12--17b------|
D|--------------------------------------------------------------------------|
A|--------------------------------------------------------------------------|
E|--------------------------------------------------------------------------|


	There you have it, sorry but i'm not used to tabbing things out, Just listen to Matts 
and play with it to get the timing down
Добавлено: 03.11.2013
Другие материалы по этой песне:
  • Аккорды и текст

Страница создана 03.11.2013
http://primanota.ru/misc-unsigned-bands/mattrach-r2d2-chords.htm
Привет, Гость.
Предлагаем пройти революционный курс по гитаре.
Подарок от PrimaNota.Ru, забирай!