PrimaNota.ru - самый крупный в мире бесплатный архив песенных текстов, аккордов, табулатур и нот


Misc Unsigned Bands - A Matter Of Time - Thomas Jefferson - I Made America - аккорды и текст

Регистрация Запомнить меня
Войти через:  Facebook Google Twitter Vk Yandex Mail.ru

Misc Unsigned Bands - A Matter Of Time - Thomas Jefferson - I Made America - аккорды и текст

Печатать
Просмотров: 130
A Matter Of Time - Thomas Jefferson - I Made America
Misc Unsigned Bands
-------------------------------------
"A MATTER OF TIME" - Thomas Jefferson 
-------------------------------------
Tabbed by: Sparkyisme
Email: crownthegoldfish@gmail.com
Tuning: Standard, Capo 4
---------

This is a song by Thomas Jefferson in I Made America, a transmedia 
series you should definitely check out, if you haven't.
Thomas Jefferson is played by Matt Herzau.

---

Em C G D x2

Em            C                           G           D
You know me well, but I know I don't belong here.
Em                  C                   G            D
I've tried through time just to make my song clear.
Em         C                 G             D
But who am I without my reputation?
Em          C                  G        D
Can I stand up to my own expectations?

Em                    C
In a different world, in a different time,
   G                  D
I knew my purpose, I felt so alive,
Em                     C
Now I start once more, I have been reborn.
  G                    D
A flake in a flurry, a drop in a storm.

     Em               C            G        D
I've lost it all what long ago was mine.
    Em                               C              G          D
The music speaks to me but what it's saying I can't decide.
        Am7         C  
Putting melody to rhyme.
               Am7                    C
Doesn't make a difference down the line.
                       Em    C   G   D
It's just a matter of time.

Em                C                   G         D
My friends have gone in the opposite direction.
Em       C                  G         D
Try as I might, I avoid detection.
Em             C                          G      D
Is my choice right, or just a flight of fancy?
Em         C                            G          D
I know my past, it's the future that I can't see.
Em                    C
In a different world, in a different place.
       G                                 D
I had America's third most recognizable face.
         Em               C
And then suddenly, out of history,
        G                       D
I'm one in seven-billion and it terrifies me.
     Em               C            G      D
I've lost it all what long ago was mine.
    Em                               C                  G        D
The music speaks to me but what it's saying I can't decide.
        Am7             C     
And I'm looking for my sign.
        Am7             C
And I'm hoping I will find it
                Em C G D x2
In a matter of time.

SOLO: not sure how accurate this is..
 (frets are tabbed "uncapoed")
e|-14-11-11-14-11-11-14-11-14-11-11-14-11-11-------|
B|-------------------------------------------14-12-|
G|-------------------------------------------------| x 3
D|-------------------------------------------------|
A|-------------------------------------------------|
E|-------------------------------------------------|

e|-----------------------------------|
B|---12-14-12-14--12-14-12-14--12-14-|
G|-15-----------15-----------15------|
D|-----------------------------------|
A|-----------------------------------|
E|-----------------------------------|

e|------------------------------12---------|
B|-12-14-16-12-16-12-14-16-12-16--16-14-12-|
G|-----------------------------------------|
D|-----------------------------------------|
A|-----------------------------------------|
E|-----------------------------------------|

e|--9-11-9-11--9-11-9-11-12-11-9---|
B|12---------12-----------------12-|
G|---------------------------------|
D|---------------------------------|
A|---------------------------------|
E|---------------------------------|

e|-11-12-14-11-14-11-12-14-11-14-12-12-11-|
B|----------------------------------------|
G|----------------------------------------|
D|----------------------------------------|
A|----------------------------------------|
E|----------------------------------------|

Em                       C     
And if I move on, and if I grow old
       G                 D
Will I end up penniless, alone in the cold?
           Em                  C
Or will I find my path, will I find my spark
     G                      
To illuminate me and get me out of the dark?
Em           C             G            D
     I've lost it all what long ago was mine.
     Em                              C                    G        D
The music speaks to me but what it's saying I can't decide.
       Am7             C
By the nickel, by the dime.
        Am7            C
It's a mountain I can climb.
      Am7             C
It's there for me to find,
                       G
It's just a matter of time.

---

| /  slide up
| \  slide down
| h  hammer-on
| p  pull-off
| ~  vibrato
| +  harmonic
| x  mute note
Добавлено: 08.02.2016
Другие материалы по этой песне:
  • Аккорды и текст

Страница создана 08.02.2016
http://primanota.ru/misc-unsigned-bands/matter-of-time-thomas-jefferson-i-made-america-chords.htm
Привет, Гость.
Предлагаем пройти революционный курс по гитаре.
Подарок от PrimaNota.Ru, забирай!