PrimaNota.ru - самый крупный в мире бесплатный архив песенных текстов, аккордов, табулатур и нот


Misc Unsigned Bands - Marc Vd Meulen - Neo-classical Electric Guitar Etude I - таба

Регистрация Запомнить меня
Войти через:  Facebook Google Twitter Vk Yandex Mail.ru

Misc Unsigned Bands - Marc Vd Meulen - Neo-classical Electric Guitar Etude I - таба

Печатать
Просмотров: 78
Elektrische gitaar
     S. S S. S. S S. S. S S. S. S S.    S S S S S. S S. S. S S. S. S S.  
E||--5-------------------------------|----------------------------------|
B||-----7----7-----------------------|-------------5-------5-------7----|
G||-------8-----8-5--8--5----5-------|----------4-----------------------|
D||-----------------------7-----7-4--|----4-5-7------7--5----5--4----4--|
A||----------------------------------|--7-------------------------------|
E||----------------------------------|----------------------------------|


  S S S S S. S S. S. S S. S. S S.    S S S S S S S S S S S S S S S S  
----------5-----------------------|--7-5-3-----------5-3-2-3---------|
--8-7-5-7------7------------------|--------7-------------------------|
-------------8----4--8----4-------|----------4-2-4-5---------4-2-----|
-----------------------7-------5--|------------------------------5-4-|
-----------------------------6----|----------------------------------|
----------------------------------|----------------------------------|


  S. S S. S. S S. S. S S. S S S S    S S S S S S S S S S S S S S S S  
----------------------------------|----------------------------------|
----------5--3-5--3----3----------|----------------------------------|
--4--1-4-------------4------------|--2-4-5-2-------------------------|
--------------------------6-4-2-6-|----------2-4-5-2-----2-----------|
----------------------------------|------------------3-5---3---2-3---|
----------------------------------|--------------------------5-----5-|


  S S S S S S S S S S S S S S S S    S. S S. S. S S. S S S S S S S S  
----------------------------------|----------------------------------|
----------------------------------|-------------5--------------------|
--2-4-5-2-----2-------------------|--2----2--5----5--2---------------|
----------3-5---3-----2-----------|-----2--------------5-4-2---------|
------------------3-5---3---2-3---|--------------------------5-3-2-0-|
--------------------------5-----5-|----------------------------------|


  S. S S. S. S S. S S S S S S S S    S. S S. S. S S. S. S S. S S S S  
----------------------------------|----------------------------------|
-------------6--------------------|----------------------------------|
--2----2--5----5--2---------------|--------------------------4-5-7-4-|
-----3--------------5-3-2---------|----------2--4-2--5--7-4----------|
--------------------------5-3-2-0-|--2--3-5--------------------------|
----------------------------------|----------------------------------|


  S S S S S S S S S S S S S S S S    S S S S S S S S S S S S S S S S  
------------5---------------------|------------5---------------------|
--------5-8---8-7---------7-5-----|--------5-8---8-7---------7-5-----|
--4-5-7-----------4-----4-----8-4-|--4-5-7-----------4-----4-----8-4-|
--------------------7-5-----------|--------------------7-5-----------|
----------------------------------|----------------------------------|
----------------------------------|----------------------------------|


  S. S S. S. S S. S. S S. S. S S.    S S S S S S S S S S S S S S S  S  
----------------------------------|-----------------------------------|
-----------------------4-----4-7--|-----------------------------------|
-------2-----2-5--2--5----5-------|-----------------------------------|
--1--4----4-----------------------|-----------------------------------|
----------------------------------|----------7-6-7-9---------9-7-9-10-|
----------------------------------|--0-0-0-0---------0-0-0-0----------|


  S S S S S S S S S S S S S S S S    S S S S S S S S S S S S S S S S  
----------------------------------|------------------------------5-5-|
----------------------------------|------------------5-5-----5-5-----|
----------------------------------|----------------------5-5---------|
----------5---5-7-9-7-5---7-5-----|------2-2-------------------------|
------------9-----------9-----9-7-|--3-3-----3-3-0-0-----------------|
--0-0-0-0-------------------------|----------------------------------|


  S S S S S S S S S S S S S S S S    S S S S S S S S S S S S S S S  S  
----------------------------------|-----------------------------------|
--------------------------4-4-----|-----------------------------------|
----------------------2-2-----4-4-|-----------------------------------|
--2-2-------------4-4-------------|-----------------------------------|
------4-4-1-1---------------------|----------7-6-7-9---------9-7-9-10-|
--------------3-3-----------------|--0-0-0-0---------0-0-0-0----------|


  S S S S S S S S S S S S S S S S    S S S S S S S S  S  S  S  S  S  S  S  S  
----------------------------------|--5-5-8-8-5-5-----------------12-12-------|
--------------------------------5-|--------------6-6-10-10-13-13-------13-13-|
------------------------4-5-6-8---|------------------------------------------|
----------------5-7-5-7-----------|------------------------------------------|
----------9-7-9-------------------|------------------------------------------|
--0-0-0-0-------------------------|------------------------------------------|


   S  S  S  S  S  S  S  S  S  S  S  S  S  S  S  S  
--------------------------------------------------|
--10-10-13-13-10-10-------------------------------|
--------------------------------11-11-------------|
--------------------14-14-13-13-------13-13-------|
--------------------------------------------14-14-|
--------------------------------------------------|


  S S S S S S S S S S S S S S S S     H         H         
----------------------------------|----------------------|
--5-5-8-8-5-5---------------------|------------12--------|
----------------------6-6---------|--11------------------|
--------------9-9-8-8-----8-8-----|----------------------|
------------------------------9-9-|----------------------|
----------------------------------|----------------------|


   Q    Q     Q     Q        H.            Q        H.            Q     
-------------------------|----------------------|----------------15----|
---L---------12----14----|--15------------------|--19------------------|
--------9----------------|----------------------|----------------------|
-------------------------|----------------12----|----------------------|
-------------------------|----------------------|----------------------|
-------------------------|----------------------|----------------------|


   H         H           Q     Q     Q.      S  S     H.            Q     
----------------------|---------------------------|----------------------|
--17------------------|-------------17------15-14-|--15------------------|
----------------------|-------18------------------|----------------------|
----------------------|--L------------------------|----------------------|
------------16--------|---------------------------|----------------13----|
----------------------|---------------------------|----------------------|


   H.            Q        S. S  S. S. S  S. S. S  S. S. S  S. 
----------------------|--12----------------------------------|
--15------------14----|-----14----14-------------------------|
----------------------|--------15----15-12-15-12----12-------|
----------------------|--------------------------14----14-11-|
----------------------|--------------------------------------|
----------------------|--------------------------------------|


   S  S  S  S  S. S  S. S. S  S. S. S  S. 
-----------------------------------------|
-----------------12-------12-------14----|
--------------11-------------------------|
-----11-12-14-------14-12----12-11----11-|
--14-------------------------------------|
-----------------------------------------|


   S  S  S  S  S. S  S. S. S  S. S. S  S. 
--------------12-------------------------|
--15-14-12-14-------14-------------------|
-----------------15----11-15----11-------|
-----------------------------14-------12-|
-----------------------------------13----|
-----------------------------------------|


   S  S  S  S  S S  S  S  S  S S  S  S S  S  S  
--14-12-10---------------12-10-9-10------------|
-----------14----------------------------------|
--------------11-9-11-12------------11-9-------|
-----------------------------------------12-11-|
-----------------------------------------------|
-----------------------------------------------|


   S.S  S. S. S  S. S. S  S. S  S S  S  
---------------------------------------|
----------12-10-12-10----10------------|
--11-8-11-------------11---------------|
----------------------------13-11-9-13-|
---------------------------------------|
---------------------------------------|


  S  S  S S S  S  S S  S  S S  S  S S  S  S  
--------------------------------------------|
--------------------------------------------|
--9-11-12-9---------------------------------|
------------9-11-12-9-------9---------------|
----------------------10-12---10----9-10----|
---------------------------------12------12-|


  S  S  S S  S  S S  S  S  S S  S  S S  S  S  
---------------------------------------------|
---------------------------------------------|
--9-11-12-9-------9--------------------------|
------------10-12---10-------9---------------|
-----------------------10-12---10----9-10----|
----------------------------------12------12-|


  S. S S.  S. S  S.S  S  S S  S  S S  S  
----------------------------------------|
-------------12-------------------------|
--9----9--12----12-9--------------------|
-----9---------------12-11-9------------|
-----------------------------12-10-9----|
-------------------------------------12-|


  S.  S S.  S. S  S.S  S  S S  S  S S  S  
-----------------------------------------|
--------------13-------------------------|
--9-----9--12----12-9--------------------|
-----10---------------12-10-9------------|
------------------------------12-10-9----|
--------------------------------------12-|


  S.  S  S.S.  S S.  S. S  S. S  S  S  S  
-----------------------------------------|
-----------------------------------------|
-----------------------------11-12-14-11-|
-----------9--11-9--12-14-11-------------|
--9--10-12-------------------------------|
-----------------------------------------|


   S  S  S  S  S  S  S  S  S  S  S  S  S  S  S  S  
-----------------12-------------------------------|
-----------12-15----15-14-------------14-12-------|
--11-12-14----------------11-------11-------15-11-|
-----------------------------14-12----------------|
--------------------------------------------------|
--------------------------------------------------|


   S  S  S  S  S  S  S  S  S  S  S  S  S  S  S  S  
-----------------12-------------------------------|
-----------12-15----15-14-------------14-12-------|
--11-12-14----------------11-------11-------15-11-|
-----------------------------14-12----------------|
--------------------------------------------------|
--------------------------------------------------|


   S. S  S. S. S  S. S. S  S. S. S  S. 
--------------------------------------|
--------------------------11----11-14-|
-----------------12----12----12-------|
-----11-14-11-14----14----------------|
--13----------------------------------|
--------------------------------------|


   S  S  S  S  S  S S S  S S S  S S S  S S  
-------------------------------------------|
--15-14-12---------------------------------|
-----------14-12-11-9-7--------------------|
------------------------11-9-7-------------|
-------------------------------10-9-7------|
--------------------------------------10-9-|


   S  S S S  S  S S S Q    S  S S  S  
-------------------------------------|
-------------------------------------|
---------------------------7---------|
----------------------9------11-9-11-|
------------------9-9----------------|
--10-10-9-9-10-10--------------------|


   S  S S  S  S S  S S S  S S S  S S S  S  
--12-10-9---------------------------------|
----------12-10-8-------------------------|
------------------11-9-7------------------|
-------------------------11-9-7-----------|
--------------------------------10-9-7----|
---------------------------------------10-|


  S S S S S S S S  S  S  S  S  S  S S S    S.  S S. S.  S S. S. S S. S. S S.  
----------------------------------------|------------------------------------|
----------------------------------------|--------8--------7------------------|
--7-7-----9-9-----11-11-------12-12-----|--9--------9--------7----9--7----6--|
----------------------------------------|-----11-------11-------9-------9----|
------9-9-----7-7-----------------------|------------------------------------|
------------------------10-10-------9-9-|------------------------------------|


  S. S  S.S. S  S.S. S S. S. S  S. 
--7----10-7----12------9-------10-|
-----7-------7----8-------8-------|
---------------------9-------9----|
----------------------------------|
----------------------------------|
----------------------------------|


  S  S  S S  S  S S  S  S  S  S  S  S  S  S  S  
-----------------------------------10-12-14-15-|
--------------------------10-12-14-------------|
------------------9-11-12----------------------|
----------9-11-12------------------------------|
--9-10-12--------------------------------------|
-----------------------------------------------|


   S  S  S  S  S  S  S  S  S  S  S  S  S  S  S  S  
--19-19-------------------21-21-18-18-------------|
--------19-19-15-15-------------------19-19-------|
--------------------16-16-------------------18-18-|
--------------------------------------------------|
--------------------------------------------------|
--------------------------------------------------|


   S. S  S. S. S  S.S.  S S. S. S S.      S S S S S S S S S S S S S S S S  
--15-------12-------9--------6-------||-----------------------------------|
-----17-14----14-11----11-8-----8-5--||-----------6-6-----8-8-------------|
-------------------------------------||*--------------7-7-----6-6---------|
-------------------------------------||*--0-0-0-0-----------------0-0-0-0-|
-------------------------------------||-----------------------------------|
-------------------------------------||-----------------------------------|


   S  S  S  S  S  S S S  S  S S S S S S S  
--------------10-10-----13-13-------------|
--11-11-----------------------------------|
------------------------------------------|
--------10-10-------9-9-------8-8-0-0-0-0-|
------------------------------------------|
------------------------------------------|


   S  S S S  S  S  S  S S S S S  S  S  S  S  
--13-13-----12-12---------------------------|
--------------------------------11-11-------|
--------------------------------------------|
--------9-9-------10-10-0-0-0-0-------11-11-|
--------------------------------------------|
--------------------------------------------|


   S  S  S  S S S S S  S S S  S S S S S    S S S S S S S S S S S S  S  S  S  S  
----------------------------------------|--------------------------------------|
--10-10-------8-8----------8-11---------|--6-6-----8-8-------------11-11-------|
------------------9-9----9--------------|------7-7-----6-6---------------------|
--------12-12---------11--------0-0-0-0-|------------------0-0-0-0-------10-10-|
----------------------------------------|--------------------------------------|
----------------------------------------|--------------------------------------|


   S  S S S  S  S S S S S S S  S  S S S  
--10-10-----13-13-------------13-13-----|
----------------------------------------|
----------------------------------------|
--------9-9-------8-8-0-0-0-0-------9-9-|
----------------------------------------|
----------------------------------------|


   S  S  S  S S S S S  S  S  S  S  S  S  S  S    S S S S S S S S    
--12-12---------------------------------------|-------------------||
----------------------11-11-------10-10-------|-------------------||
----------------------------------------------|--7-6-5-4---------*||
--------10-10-0-0-0-0-------11-11-------12-12-|----------8-7-6-5-*||
----------------------------------------------|-------------------||
----------------------------------------------|-------------------||


   S  S  S S  S  S  S  S  S  S  S  S  S  S  S  S  
--12-11-10-9-------------------------------------|
-------------13-12-11-10-------------------------|
-------------------------13-12-11-10-------------|
-------------------------------------14-13-12-11-|
-------------------------------------------------|
-------------------------------------------------|


   S  S  S  S  S  S  S  S  Q     S  S  S  S  
--------------------------------------------|
--------------------------10----13-11-10-11-|
--------------10-10-12-12-------------------|
--12-12-------------------------------------|
--------12-12-------------------------------|
--------------------------------------------|


   S  S  S  S  S  S  S  S  S  S  S  S  S  S  S  S  
--17-15-13-12-------------------------------------|
--------------14-11-10----------------------------|
-----------------------12-10----------------------|
-----------------------------14-12-11-------------|
--------------------------------------13-12-10----|
-----------------------------------------------13-|


   S  S  S  S  S  S  S  S  S  S S S  S  S S S     H.            Q     
----------------------------------------------|----------------------|
--------------------------10-10-----11-11-----|----------------15----|
--10-10-------12-12---------------------------|----------------------|
----------------------------------------------|--12------------------|
--------12-12-------10-10-------8-8-------7-7-|----------------------|
----------------------------------------------|----------------------|


  Q     Q     Q     Q        H.            Q       Q     Q     Q     Q     
-------------------------|----------------------|-------------------------|
--L----------13----15----|--16------------15----|--L----------13----15----|
-------12----------------|----------------------|-------12----------------|
-------------------------|----------------------|-------------------------|
-------------------------|----------------------|-------------------------|
-------------------------|----------------------|-------------------------|


   H.            Q        H.            Q        W                 
----------------15----|--17------------18----|--------------------|
--16------------------|----------------------|--20----------------|
----------------------|----------------------|--------------------|
----------------------|----------------------|--------------------|
----------------------|----------------------|--------------------|
----------------------|----------------------|--------------------|


  Q     Q     Q.      S  S     H.            Q      
---------------------------|----------------------||
--L----17----18------17-15-|--17------------14----||
---------------------------|----------------------||
---------------------------|----------------------||
---------------------------|----------------------||
---------------------------|----------------------||




Duration Legend
---------------
W - whole
H - half
Q - quarter
E - 8th
S - 16th
T - 32nd
X - 64th
. - note dotted
|-n-|  - n-tuplets


Tablature Legend
----------------
L - tied note
x - dead note
g - grace note
(n) - ghost note
> - accentuded note
NH - natural harmonic
AH - artificial harmonic
TH - tapped harmonic
SH - semi harmonic
PH - pitch harmonic
h - hammer on
p - pull off
b - bend
br - bendRelease
pb - preBend
pbr - preBendRelease
brb - bendReleaseBend
\n/ - tremolo bar dip
\n - tremolo bar dive
-/n - tremolo bar Release up
/n\ - tremolo bar inverted dip
/n - tremolo bar return
-\n - tremolo bar Release down
S - shift slide
s - legato slide
/ -  slide into from below or out of upwards
\ -  slide into from above or out of downwards
~ - vibrato
W - wide vibrato
tr - trill
TP - tremolo picking
T - tapping
S - slap
P - pop
< - fade in
^ - brush up
v - brush down
Добавлено: 02.08.2013
Другие материалы по этой песне:
  • Аккорды и текст

Страница создана 02.08.2013
http://primanota.ru/misc-unsigned-bands/marc-vd-meulen-neo-classical-electric-guitar-etude-i-chords.htm
Привет, Гость.
Предлагаем пройти революционный курс по гитаре.
Подарок от PrimaNota.Ru, забирай!