PrimaNota.ru - самый крупный в мире бесплатный архив песенных текстов, аккордов, табулатур и нот


Misc Unsigned Bands - Love Me Electric - Total Eclipse Of The Heart - аккорды и текст

Регистрация Запомнить меня
Войти через:  Facebook Google Twitter Vk Yandex Mail.ru

Misc Unsigned Bands - Love Me Electric - Total Eclipse Of The Heart - аккорды и текст

Печатать
Просмотров: 62
Love Me Electric - Total Eclipse Of The Heart
Misc Unsigned Bands
This is my first time making a tab. Hope this helps. :) :) :)
just use power chords.

Intro
(this is really a piano part)
|------9---8---6---|
|----6---6---6---6-|
|------------------|
|--8---------------| two times
|------------------|
|------------------|

|------8---6--------|
|----6---6---6-9----|
|-------------------|
|--6----------------| two times
|-------------------|
|-------------------|

^This part can be played up to the second "Turn around..." part

Bbm
Turn around.. every now and then I get a little bit lonely and you're never coming round.
Ab
Turn around.. every now and then I get a little bit tired of list'ning to the sound of my tears.
C#
Turn around.. every now and then I get a little bit nervou that the best of all 
the years have gone by.
B
Turn around.. every now and then I get a little bit terrified and then I see the look in your eyes.
E            A
Turn around, bright eyes.. every now and then I fall apart.
E            A                                          Ab                             
Turn around, bright eyes.. every now and then I fall apart.

      Fm              C#           Eb                 Ab
And I need you now tonight and I need you more than ever
           Fm           C#              Eb           Ab
and if you only hold me tight we'll be holding on forever.
          Fm                C#                  Eb
And we'll only be making it right 'cause we'll never be wrong.
C#                               Eb
Together we can take it to the end of the line.
     Fm                         Bb
Your love is like a shadow on me all of the time.
   Ab                           Cm
I don't know what to do and I'm always in the dark.
      Fm                         Bb
We're living in a powder keg and giving off sparks.
                  C#           Bb           Cm      C#
I really need you tonight, forever's gonna start tonight,
Eb
forever's gonna start tonight.

one strum each chord
Ab                     Fm                Cm                   C#     C# Cm
Once upon a time I was falling apart but now I'm only falling apart
        Bb                  Eb                      Ab
There's nothing I can do, a total eclipse of the heart

first solo
then lead does this while the rhythm chords are A F#m D E
|------------------------------|
|------------------------------|
|--13-13-13-13-12-13-15-13-12--|
|------------------------------|
|--11-11-11-11-10-11-13-11-10--| three times then
|------------------------------|

|------------------|
|------------------|
|--13-13-13-13-12\-|
|------------------|
|--11-11-11-11-10\-|
|------------------|

Ab                         Fm
Once upon a time there was light in my life 
    Cm                           C#     C# Cm
But now there's only love in the dark 
Bb
Nothing I can do 
  Eb                        Ab
A total eclipse of the heart

another piano part here
(transposed in guitar)
|---------------------9-8--------------|
|--9-8-9-11-9-8-9---------9------------|
|---------------------------8----------|
|-----------------------------11-10----|
|-----------------------------------11-|
|--------------------------------------|
 
second solo
for rhythm chords just use the verse one. Bbm Ab 2x then C# B
|------------------------------------|
|------------------------------------|
|--3-5-6-6-6-6-6-5/6-8-8-6-6-5-5-3-3-|
|------------------------------------| twice then
|--1-3-4-4-4-4-4-3/4-6-6-4-4-3-3-1-1-|
|------------------------------------|

|----------------------------------------------|
|----------------------------------------------|
|--6-8-10-10-10-10-10-8/10-11-11-10-10-8-8-6-6-|
|----------------------------------------------|
|--4-6-8--8--8--8--8--6/8--9--9--8--8--6-6-4-4-| twice
|----------------------------------------------|

one strum per chord
E            A             A
Turn around, bright eyes.. every now and then I fall apart.
E            A             A                              Ab                            
Turn around, bright eyes.. every now and then I fall apart.

first part of the chorus are played on piano but you could just play the chords

      Fm              C#           Eb                 Ab
And I need you now tonight and I need you more than ever
           Fm           C#              Eb          Ab
and if you only hold me tight we'll be holding on forever.
          Fm                C#                 Eb
And we'll only be making it right 'cause we'll never be wrong.
C#                               Eb
Together we can take it to the end of the line.
     Fm                          Bb
Your love is like a shadow on me all of the time.
   Ab                            Cm
I don't know what to do and I'm always in the dark.
      Fm                         Bb
We're living in a powder keg and giving off sparks.
                  C#          Bb           Cm      C#
I really need you tonight, forever's gonna start tonight,
Eb
forever's gonna start tonight.

one strum each chord
Ab                     Fm                Cm                    C#     C# Cm
Once upon a time I was falling apart but now I'm only falling apart
        Bbm                 Eb                      Ab
There's nothing I can do, a total eclipse of the heart

outro
Just play Ab Fm C#m Eb repeatedly for like five or more times.

there is a piano part there which i think can be played repeatedly like this
|--8--8--6--6--6--8--11-11---|
|----9--9--9--9--9--9--9--9--|
|----------------------------|
|----------------------------|
|----------------------------|
|----------------------------|

that's it thanks please rate
Добавлено: 23.09.2013
Другие материалы по этой песне:
  • Аккорды и текст

Страница создана 23.09.2013
http://primanota.ru/misc-unsigned-bands/love-me-electric-total-eclipse-of-the-heart-chords.htm
Привет, Гость.
Предлагаем пройти революционный курс по гитаре.
Подарок от PrimaNota.Ru, забирай!