PrimaNota.ru - самый крупный в мире бесплатный архив песенных текстов, аккордов, табулатур и нот


Misc Unsigned Bands - The Limes - Shes So Shy - аккорды и текст

Регистрация Запомнить меня
Войти через:  Facebook Google Twitter Vk Yandex Mail.ru

Misc Unsigned Bands - The Limes - Shes So Shy - аккорды и текст

Печатать
Просмотров: 35
The Limes - Shes So Shy
Misc Unsigned Bands
intro: 
e|------------------|
B|------------------|
G|------------------|
D|------------------|
A|------------------|
E|-3-3-3-3-3--------|
                G
Because she's shy 
           Bm
Yeah she's shy
     C
I really don't 
  G
Why
  Bm
I saw you dancing 
  C
All over that
D
Other guy 
   G
And I
   Bm
Don't  know what shes after
    C
 I don't know whos to 
  G
Blame
  Bm
All I know 
  C                  G
Wanna know her name

solo:
e|--------------------------------10----------------------------------------------|
B|-----12---10---------10---12---------------10-----12----------------------------|
G|---------------12---------------------12----------------------------------------|
D|--------------------------------------------------------------------------------|
A|--------------------------------------------------------------------------------|
E|--------------------------------------------------------------------------------|


e|--------------------------------12--------12--10--------------------------------|
B|-----12---10---------10---12------------------------12----10--------------------|
G|---------------12---------------------------------------------------------------|
D|--------------------------------------------------------------------------------|
A|--------------------------------------------------------------------------------|
E|--------------------------------------------------------------------------------|

e|--------------------------------10----------------------------------------------|
B|-----12---10---------10---12---------------10-----12----------------------------|
G|---------------12---------------------12----------------------------------------|
D|--------------------------------------------------------------------------------|
A|--------------------------------------------------------------------------------|
E|--------------------------------------------------------------------------------|

e|--------------------------------------------------------------------------------|
B|-----12---10-------------10---12--------10--10----------------------------------|
G|---------------12--12-----------------------------12----12----------------------|
D|--------------------------------------------------------------------------------|
A|--------------------------------------------------------------------------------|
E|--------------------------------------------------------------------------------|
Добавлено: 07.04.2016
Другие материалы по этой песне:
  • Аккорды и текст

Страница создана 07.04.2016
http://primanota.ru/misc-unsigned-bands/limes-shes-so-shy-chords.htm
Привет, Гость.
Предлагаем пройти революционный курс по гитаре.
Подарок от PrimaNota.Ru, забирай!