PrimaNota.ru - самый крупный в мире бесплатный архив песенных текстов, аккордов, табулатур и нот


Misc Unsigned Bands - Lansdowne - Watch Me Burn - таба

Регистрация Запомнить меня
Войти через:  Facebook Google Twitter Vk Yandex Mail.ru

Misc Unsigned Bands - Lansdowne - Watch Me Burn - таба

Печатать
Просмотров: 136
Lansdowne-Watch Me Burn
Tuning:Standard E(Maybe Drop D)
Album: Blue Collar Revolver
**Please visit my channel on youtube (Jali343) to request tabs!**
Intro: Distorted (the dot means the note is palm muted Means the note is palm-muted)
e|--------------------------------------------------|
B|--------------------------------------------------|
G|--------------------------------------------------|
D|-------4-5-5-5------3----5---3--5-6-5-3-----------|
A|-0-0---2/3-3-3------3----5---3--5-6-5-3-----------|
E|-0-0--------------0----0---0----------------------|
   . .              .    .   .
Intro(Cont.) : Distorted (Also Chorus riff; D, C, F and G power chords)

e|--------------------------------------------------|
B|--------------------------------------------------|
G|--777777-555555-----------------------------------|
D|--777777-555555-333333-555555---------------------|
A|--555555-333333-333333-555555---------------------|
E|----------------111111-333333---------------------|
Intro(Cont.):Little Solo
e|--------------------------------------------------------------|
B|--------------------------------------------------------------|
G|-12^(14)12-10-12^(14)-12-10-12^-(14)12-10-10-10--10-12^(14)12-|
D|--------------------------------------------------------------|
A|--------------------------------------------------------------|
E|--------------------------------------------------------------|

e|-10--10--10--10--10-----------------------------------------|
B|-13^-13^-13^-13^----13-10-----------------------------------|
G|--------------------------12-10-----------------------------|
D|--------------------------------12--------------------------|
A|------------------------------------------------------------|
E|------------------------------------------------------------|

Verse:Clean Guitar (The Chords are Dmaj, Cmaj9,a kind of F maj and Cmaj in case you want 
to play just the chords)
e|--------------------------------------------------------|
B|----------------------------------1---1--1--1---1----1--|
G|---7-----7---------7----7----------0---0-----0---0------|
D|-----7----7---7-----5----5---5--3----3--3----------2----|
A|-5-----5----5----3----3----3---------------3---3--------|
E|--------------------------------------------------------|

Verse:Dist.Guitar (Only in Verse 2)(All Notes palm-muted)

e|------------------------------------------|
B|-333333333-3333333-33333333-333333--------|
G|-222222222-0000000-22222222-000000--------|
D|-000000000-2222222-00000000-222222--------|
A|-000000000-3333333-00000000-333333--------|
E|------------------------------------------|

Pre-Chorus:Distorted( All the open notes on the sixth string are palm-muted)
e|-----------------------------------------------------------------------|
B|-----------------------------------------------------------------------|
G|-----------------------------------------------------------------------|
D|----3--3---3-3----3-3---3-5-6-5-3---3--3---3-3--3-3----101010-99999----|
A|----3--3---3-3----3-3---3-5-6-5-3---3--3---3-3--3-3----88888--77777----|
E|-00--00--00----00-----0-----------00-00--00---00-----------------------|

Chorus:Distorted (In an Acoustic the Chords are Dmaj, Cmaj/Cmaj9, Fmaj, G maj)

e|--------------------------------------------------|
B|--------------------------------------------------|
G|-77777777-55555555--------------------------------|
D|-77777777-55555555-33333333-55555555--------------|
A|-55555555-33333333-33333333-55555555--------------|
E|-------------------11111111-33333333--------------|

And on the last time:

e|--------------------------------------|
B|--------------------------------------|
G|-77777777-55555555--------------------|
D|-77777777-55555555--------------------|
A|-55555555-33333333-33--33-----0-3-----|
E|-------------------11--11-----0-1-----|

Solo:

e|-----------------------------------------------------10--10--------------|
B|-----------------------------------------------------13^---13------------|
G|10-12^12-10-12-10-12^^--12p10---------12^12-10-12-10---------12-10-------|
D|------------------------------12-10--------------------------------12----|
A|-------------------------------------------------------------------------|
E|-------------------------------------------------------------------------|

Solo(Cont.):Not 100% sure about this part

e|---------------------------------------10----------10--------------------|
B|--------------------------------10--------13^-13^---13-10h13p10----------|
G|-1010-99-77-99-55-44---77-------10-12----------------------------12-10h12|
D|--------------------55-------12------------------------------------------|
A|-------------------------------------------------------------------------|
E|-------------------------------------------------------------------------|

Bridge:Dmaj and Cmaj with an effect

That’s the whole song

Notation:
. :Palm-Mute
/:Slide
^:Bend
^():Bend note till you rich the note note in brackets
H:hammer on
P:pull:off
Добавлено: 21.09.2013
Другие материалы по этой песне:
  • Аккорды и текст

Страница создана 21.09.2013
http://primanota.ru/misc-unsigned-bands/lansdowne-watch-me-burn-chords.htm
Привет, Гость.
Предлагаем пройти революционный курс по гитаре.
Подарок от PrimaNota.Ru, забирай!