PrimaNota.ru - самый крупный в мире бесплатный архив песенных текстов, аккордов, табулатур и нот


Misc Unsigned Bands - Jack Steadman - If I Could - таба

Регистрация Запомнить меня
Войти через:  Facebook Google Twitter Vk Yandex Mail.ru

Misc Unsigned Bands - Jack Steadman - If I Could - таба

Печатать
Просмотров: 62
-------------------------------------------------------------------------------
                                     Jack Steadman - If I Could
-------------------------------------------------------------------------------
Tabbed by: Harry Yeates
E-mail: HarryYeates@gmail.com

Tuning:
Standard

e
B
G
D
A
E

/ = Hammer-on 

VERSE / INTRO

e|---------------------------------------------------------------------------|
B|---------------------------------------------------------------------------|
G|--------------4------------------------0-----------------------------------|
D|--------0--------0-----0---------4--------4----4---------------------------|
A|---0/2--------------2--------0/2-------------2-----------------------------|
E|-----------3------------------------0--------------------------------------|

e|---------------------------------------------------------------------------|
B|---------------------------------------------------------------------------|
G|--------------2------------------------0-----------------------------------|
D|--------0--------0-----0---------4--------4-----4--------------------------|
A|---0/2--------------2--------0/2-------------2-----------------------------|
E|-----------3------------------------0--------------------------------------|

PRE-CHORUS (Same bit as the verse, but with a little twist as it goes into the chorus)

e|---------------------------------------------------------------------------|
B|---------------------------------------------------------------------------|
G|--------------0------------------------------------------------------------|
D|--------4--------4-----4---------------------------------------------------|
A|---0/2--------------2-----2------------------------------------------------|
E|-----------0-----------------0---------------------------------------------|

CHORUS

e|---------------------------------------------------------------------------|
B|---------------------------------------------------------------------------|
G|------9-----9-----9-----9-----9-----9-----7-----7--------------------------|
D|---------------------------------------------------------------------------|
A|---------------------------------------------------------------------------|
E|---7-----7-----7-----7-----7-----7-----5-----5-----------------------------|

e|---------------------------------------------------------------------------|
B|---------------------------------------------------------------------------|
G|------4-----4-----4-----4-----4-----4-----2-----0--------------------------|
D|---------------------------------------------------------------------------| x3
A|---------------------------------------------------------------------------|
E|---3-----3-----3-----3-----3-----3-----0-----0-----------------------------|

e|---------------------------------------------------------------------------|
B|---------------------------------------------------------------------------|
G|------9-----9-----9-----9-----9-----9-----7-----7--------------------------|
D|---------------------------------------------------------------------------|
A|---------------------------------------------------------------------------|
E|---7-----7-----7-----7-----7-----7-----5-----5-----------------------------|

e|---------------------------------------------------------------------------|
B|---------------------------------------------------------------------------|
G|------4-----4-----4-----4-----4-----4-----2-----0--------------------------|
D|---------------------------------------------------------------------------| x3  
A|---------------------------------------------------------------------------|
E|---3-----3-----3-----3-----3-----3-----0-----0-----------------------------|

AND THEN BACK INTO THE VERSE, ETC.

Contact me via email if you need any information on finger positioning or more!
Добавлено: 08.12.2013
Другие материалы по этой песне:
  • Аккорды и текст

Страница создана 08.12.2013
http://primanota.ru/misc-unsigned-bands/jack-steadman-if-i-could-chords.htm
Привет, Гость.
Предлагаем пройти революционный курс по гитаре.
Подарок от PrimaNota.Ru, забирай!