PrimaNota.ru - самый крупный в мире бесплатный архив песенных текстов, аккордов, табулатур и нот


Misc Unsigned Bands - Helgas Fun Castle - Mr Fancypants - таба

Регистрация Запомнить меня
Войти через:  Facebook Google Twitter Vk Yandex Mail.ru

Misc Unsigned Bands - Helgas Fun Castle - Mr Fancypants - таба

Печатать
Просмотров: 37
Song : Mr. Fancypants
Band : Helga's Fun Castle
Album : Thank You, Come Again.


KEY :

b = bend
s = slide
p = pull-off
h  hammer-on


RIFFS :

Intro Riff (IR) :

e---------------------------------------------------------------|
B---------------------------------------------------------------|
G---------------------------------------------------------------|
D------------------------------------------------------3s5-3----|
A---------------1-0-1-0-1--3b---------------1-0-1-0-1-----------|
E----3-1-3-1-3-------------------3-1-3-1-3----------------------|


Verse Riff (VR) :

e----------------------------------|
B----------------------------------|
G----------------------------------|
D----------------------------------|
A----------------------------------|
E----3-1-3-1-3----3-1-3-1-3--6b----|


Outro Riff (OR) :

e-----------------------------------------------------------|
B-----------------------------------------------------------|
G-----------------------------------------------------------|
D-------------------------------------3-2-3-2-3--5-3-5-3----|
A---------------1-0-1-0-1--3-1-3-1-3------------------------|
E----3-1-3-1-3----------------------------------------------|


CHORDS :


     Gm7   |-Bb-|   |---C---|     F     F*
e-----3-----1--6-----3--0--8------1-----x-------|
B-----3-----3--6-----5--1--8------1-----x-------|
G-----3-----3--7-----5--0--9------2-----10------|
D-----3-----3--8-----5--2--10-----3-----x-------|
A-----5-----1--8-----3--3--10-----3-----8-------|
E-----3-----1--6-----3--0--8------1-----x-------|

SONG :

IR is played 4 times and then verse starts.

VERSE 1 : (Play with Verse Riff)
VR
Mr. Fancypants drivin' in your car.
VR
Life just made a blessed turn, you're gettin' very far.
VR
Mr. Fancypants does it hurt your mind?
VR
Gettin' way too big for you, it happens all the time.


CHORUS :
Gm7      Bb     C
Lend.... me.... hand
    Gm7     Bb      F
Mr. Fan.... cy..... pants
Gm7      Bb     C
Lend.... me.... hand
    Gm7     Bb      F
Mr. Fan.... cy..... pants


IR is played twice

VERSE 2 :
VR
Mr. Fancypants you time is almost over
VR
The rising of the little ones is heading for your tower
VR
Mr. Fancypants turn up in your tower
VR
Legions of adoring fans have taken all the power


CHORUS :
Gm7      Bb     C
Lend.... me.... hand
    Gm7     Bb      F
Mr. Fan.... cy..... pants
Gm7      Bb     C
Lend.... me.... hand
    Gm7     Bb      F
Mr. Fan.... cy..... pants


SOLO :

The Solo is played over the intro riff and chorus chords. IR is played 4 times and after 
chorus chords twice.

As to what the solo is, meet me and I'll show you. I really don't have the patience to 
out the whole damn thing. Its a fully improvistaional solo anyway with a few musical 
spaced throughout.


After the solo, keep playing F* while the drummer shows off.


Then the OR is played 4 times.


Chorus 4 times


End with OR.
Добавлено: 03.09.2013
Другие материалы по этой песне:
  • Аккорды и текст

Страница создана 03.09.2013
http://primanota.ru/misc-unsigned-bands/helgas-fun-castle-mr-fancypants-chords.htm
Привет, Гость.
Предлагаем пройти революционный курс по гитаре.
Подарок от PrimaNota.Ru, забирай!