PrimaNota.ru - самый крупный в мире бесплатный архив песенных текстов, аккордов, табулатур и нот


Misc Unsigned Bands - Green Machine - аккорды и текст, видео

Регистрация Запомнить меня
Войти через:  Facebook Google Twitter Vk Yandex Mail.ru

Misc Unsigned Bands - Green Machine - аккорды и текст, видео

Печатать
Просмотров: 15
Уроки эстрадного вокала в Санкт-Петербурге
Green Machine
Misc Unsigned Bands
Interpret: Juma
Titel:     Green Machine 
Tuning:    Standard 

Riff E5  (Lead Guitar):
 e|---------------------------------|-----------------------------|
 B|---------------------------------|-----------------------------|
 G|---------------------------------|-----------------------------|
 D|----9-----9-----9-----9-----8h9p8|----9-----9-----9-----9\5--7-|
 A|----7-----7-----7-----7-----7----|----7-----7-----7-----7\3--5-|
 E|0-0---0-0---0-0---0-0---0-0------|0-0---0-0---0-0---0-0--------|
PM:. .   . .   . .   . .   . .       . .   . .   . .   . .


Riff E5 * (Lead Guitar):
 e|---------------------------------|--------------------------------|
 B|---------------------------------|--------------------------------|
 G|---------------------------------|--------------------------------|
 D|----9-----9-----9-----9-----8h9p8|----9-----9-----5-5-5-2-4-7-7-7-|
 A|----7-----7-----7-----7-----7----|----7-----7-----3-3-3-2-2-5-5-5-|
 E|0-0---0-0---0-0---0-0---0-0------|0-0---0-0---0-0-----------------|
PM:. .   . .   . .   . .   . .       . .   . .   . .


Verse:
E5 
I've got a war inside my head
E5 
It's got to set your soul free
E5 
I've got a wheel inside my head 
E5 *
A wheel of understanding 

Chorus:
E5                C5         D5          D5/B
I'm a loading I'm loading my war machine
E5                      C5         B5                B5/C/D5
I'm contributing to the System the breakdown scheeme
E5                      C5                D5              D5/B
I'm a shutting down I'm shutting down the greed for green
E5           C5              B5       C5/B B5/C
I am here to gun 'em down, I gotta do

Verse:
E5 
I see pretty flowers at my feet 
E5 
Cool breeze clean air hospitality 
E5 
Pretty please, pretty please, pretty please 
E5 *
Get the he'll away from me

Chorus:
E5                C5         D5          D5/B
I'm a loading I'm loading my war machine
E5                      C5         B5                B5/C/D5
I'm contributing to the System the breakdown scheeme
E5                      C5                D5              D5/B
I'm a shutting down I'm shutting down the greed for green
E5           C5              B5       C5/B B5/C
I am here to gun 'em down, I gotta do

Solo

Interlude:
E5  C5      D5~~ D5/B
E5  C5 /D5  A5~~ C5/B
E5  C5      D5~~ D5/B
E5  C5 /D5 \B5 C5/B B5/C

Verse:
E5 
I've got a war inside my head
E5 
It's got to set your soul free
E5 
I've got a wheel inside my head 
E5 *
A wheel of understanding 

Chorus: 2x
E5                C5         D5          D5/B
I'm a loading I'm loading my war machine
E5                      C5         B5                B5/C/D5
I'm contributing to the System the breakdown scheeme
E5                      C5                D5              D5/B
I'm a shutting down I'm shutting down the greed for green
E5           C5              B5       C5/B B5/C
I am here to gun 'em down, I gotta do

Outro:
E5 
Добавлено: 19.11.2017
Другие материалы по этой песне:
  • Аккорды и текст

Страница создана 19.11.2017
http://primanota.ru/misc-unsigned-bands/green-machine-chords.htm
Привет, Гость.
Предлагаем пройти революционный курс по гитаре.
Подарок от PrimaNota.Ru, забирай!