PrimaNota.ru - самый крупный в мире бесплатный архив песенных текстов, аккордов, табулатур и нот


Misc Unsigned Bands - Good Graeff - Top Of The World - аккорды и текст

Регистрация Запомнить меня
Войти через:  Facebook Google Twitter Vk Yandex Mail.ru

Misc Unsigned Bands - Good Graeff - Top Of The World - аккорды и текст

Печатать
Просмотров: 86
Good Graeff - Top Of The World
Misc Unsigned Bands
Haven't seen any Good Graeff tabs on here, but I love this song so thought I'd post this.

No capo.

Intro:
e|--------------------------------|
B|---3---3---3---3---3---3---3----|
G|-4---2-------2---4---2----------|
D|---------4---------------4---2--| then strum D chord
A|--------------------------------|
E|--------------------------------|
play twice then,
e|--------|
B|--------|
G|--------|
D|-2-4-2-0| then strum D chord
A|--------|
E|--------|
play twice.


Verse: same as intro, picked parts in time to the singing


Chorus:
           Bm                  G
We've gone far beyond what our parents dreamed for us
         Bm             G
And five years ago, I myself would not have guessed
       D                G  
It's a chemical that we all need to ingest
    Bm                                G
I'm not on top of the world, but with you I'm getting fucking close


Interlude:
D   G   D   G   D   G   D   G   


Play Verse again.

Play Chorus again.

Play Interlude again.


Bridge:
D   Bm   D   Bm

D                             Bm
   I'm your Bonnie, you're my Clyde now let's make it happen (x4)

then D   Bm   D   Bm


Play Chorus again.

Play Interlude again.

Outro:
e|--------------------------------|
B|---3---3---3---3---3---3---3----|
G|-4---2-------2---4---2----------|
D|---------4---------------4---2--| then hold D chord
A|--------------------------------|
E|--------------------------------|
Добавлено: 19.09.2015
Другие материалы по этой песне:
  • Аккорды и текст

Страница создана 19.09.2015
http://primanota.ru/misc-unsigned-bands/good-graeff-top-of-world-chords.htm
Привет, Гость.
Предлагаем пройти революционный курс по гитаре.
Подарок от PrimaNota.Ru, забирай!