PrimaNota.ru - самый крупный в мире бесплатный архив песенных текстов, аккордов, табулатур и нот


Misc Unsigned Bands - Genuine Innocence - Something For Nothing - таба

Регистрация Запомнить меня
Войти через:  Facebook Google Twitter Vk Yandex Mail.ru

Misc Unsigned Bands - Genuine Innocence - Something For Nothing - таба

Печатать
Просмотров: 36
                              SOMETHING FOR NOTHING
                               Genuine Innocence


   Intro
    Q=160
   4/4
    Gtr I
||----------------------|---------------------|
||o---------------------|---------------------|
||----------------------|---------------------|
||----11---11---11---11-|----9----9----9----9-|
||o-9----9----9----9----|-11---11---11---11---|
||----------------------|---------------------|


|-----------------|------------------||
|-----------------|-----------------o||
|-----------------|------------------||
|---9---9---9---9-|---7---7---7---7--||
|-7---7---7---7---|-5---5---5---5---o||
|-----------------|------------------||


   4/4
    Gtr I
||--------------------------|-------------------------|
||o-------------------------|-------------------------|
||--------------------------|-------------------------|
||-----11----11----11----11-|-----9-----9-----9-----9-|
||o--9-----9-----9-----9----|-11----11----11----11----|
||--------------------------|-------------------------|
|
|   Gtr II
|    PM------------------------------------------------
||--------------------------|-------------------------|
||o-------------------------|-------------------------|
||--------------------------|-------------------------|
||--11-11-11-11-11-11-11-11-|--9--9--9--9--9--9--9--9-|
||o--9--9--9--9--9--9--9--9-|-11-11-11-11-11-11-11-11-|
||--------------------------|-------------------------|


                    1.                  2.
|-----------------|------------------||------------------|
|-----------------|-----------------o||------------------|
|-----------------|------------------||------------------|
|---9---9---9---9-|---7---7---7---7--||---7---7---7---7--|
|-7---7---7---7---|-5---5---5---5---o||-5---5---5---5----|
|-----------------|------------------||------------------|
|
|---------------------------------|
|-----------------|------------------||------------------|
|-----------------|-----------------o||-------------6-6--|
|-----------------|------------------||-----7-7-7-7-7-7--|
|-9-9-9-9-9-9-9-9-|-7-7-7-7-7-7-7-7--||-7-7-7-7-7-7-7-7--|
|-7-7-7-7-7-7-7-7-|-5-5-5-5-5-5-5-5-o||-5-5-5-5-5-5-5-5--|
|-----------------|------------------||------------------|


    Gtr IV
||--------------------------|-----------------------|
||o-------------------------|-----------------------|
||--11----11-11----11-11-11-|-11---11-11---11-11-11-|
||--11----11-11----11-11-11-|--9----9--9----9--9--9-|
||o--9-----9--9-----9--9--9-|-11---11-11---11-11-11-|
||--------------------------|-----------------------|
|
|   Gtr III
||--------------------------|-----------------------|
||o-------10----------10----|-------9---------------|
||-----11-------11-------11-|---------11------------|
||--11----------------------|----9-------9----------|
||o-----------------9-------|-11-----------11--9----|
||--------------------------|-----------------------|


|----------------|--------------------||
|----------------|-------------------o||
|-9--9-9---9-9-9-|-7---7-7----7-7-7---||
|-9--9-9---9-9-9-|-7---7-7----7-7-7---||
|-7--7-7---7-7-7-|-5---5-5----5-5-5--o||
|----------------|--------------------||
|
|----------------|--------------------||
|----------------|-------------------o||
|----9-7-6-------|-----5-7b9r=5-------||
|----------9-7---|---7----------7-----||
|-7--------------|-5-----------------o||
|----------------|--------------------||


|-------------------------|-------------------------|---------------------------|---------------------|
|-------------------------|-------------------------|---------------------------|---------------------|
|-11-11-11-11-11-11-11-11-|-13-13-13-13-13-13-13-13-|-14-14-14-14-14---14-14-14-|-7-7---7-7---7-7-7-7-|
|--x--x--x--x--x--x--x--x-|--x--x--x--x--x--x--x--x-|--x--x--x--x--x----x--x--x-|-x-x---x-x---x-x-x-x-|
|--9--9--9--9--9--9--9--9-|-11-11-11-11-11-11-11-11-|-12-12-12-12-12---12-12-12-|-5-5---5-5---5-5-5-5-|
|-------------------------|-------------------------|---------------------------|---------------------|
|
|-------------------------|-------------------------|---------------------------|---------------------|
|-------10----------10----|--------9----------------|---------------------------|---------------------|
|----11--------9--------9-|-----------9-------------|--------9--7--6b7r=========|=======5-7b9r==5-----|
|-11----------------------|-----9-------11----------|--9-------------------7----|---7b9-----------7---|
|-----------------9-------|-11--------------9-11----|---------------------------|-5-------------------|
|-------------------------|-------------------------|---------------------------|---------------------|


|-------------------------|--------------------|-------------------|-----------------|
|-------------------------|--------------------|-------------------|-----------------|
|-11-11-11-11-11-11-11-11-|--9-9--9-9--9-9-9-9-|-7-7-7-7---7-7-7-7-|-7-7-7-7-7-7-7-7-|
|--x--x--x--x--x--x--x--x-|--x-x--x-x--x-x-x-x-|-x-x-x-x---x-x-x-x-|-x-x-x-x-x-x-x-x-|
|--9--9--9--9--9--9--9--9-|--7-7--7-7--7-7-7-7-|-5-5-5-5---5-5-5-5-|-5-5-5-5-5-5-5-5-|
|-------------------------|--------------------|-------------------|-----------------|
|
|                                                                                ~
|-------------------------|--------------------|-------------------|-----------------|
|----10-------------10----|---------9----------|-------------------|-7-5-------------|
|-11-------------------11-|------11---11-------|-----9-7b9---6-----|-----7-6-4-------|
|-------------11----------|----9---------9-----|---------------9-7-|-----------7-4---|
|-----------9--9--9-------|-11-------------9---|-7-----------------|-----------------|
|-------------------------|--------------------|-------------------|-----------------|


   Verse
    $
||--------------------------|-------------------------|
||o-------------------------|-------------------------|
||--------11-11-11----------|-------11-------11-11-11-|
||--11-11-11-11----11----11-|--9--9-----9--9--------9-|
||o--9--9--9--9--------9----|-11-11----11-------------|
||--------------------------|-------------------------|
|
||--------------------------|-------------------------|
||o----------10-------------|-----------------9-------|
||--------------11----------|-------11----11----------|
||-----11-------------11----|-----9-----9--------9----|
||o--9-----9--------9-------|-11-------------------11-|
||--------------------------|-------------------------|


|-----------------|-------------------||
|-----------------|------------------o||
|-------9-9-9---9-|-7-----7---7---7---||
|-----9-9-9-9---9-|-7-7-----7---7-7---||
|-7-7-7---7---7-7-|-5-5-5-------5----o||
|-----------------|-------------------||
|
|-----------------|-------------------||
|---------9-------|-----------7------o||
|---9-----------9-|-------7-----7-----||
|-----9-------9---|-7---7-------------||
|-7-----7---7-----|---5-----5-----5--o||
|-----------------|-------------------||


   Pre-Chorus
    Gtrs III, IV
||------------------------|--------------|
||o-----------------------|--------------|
||--11-11-11-11-11-11-11--|-9--9-9--9-9--|
||--11-11-11-11-11-11-11--|-9--9-9--9-9--|
||o--9--9--9--9--9--9--9--|-7--7-7--7-7--|
||------------------------|--------------|


                             D.S.
|--------------|-----------------------||
|--------------|----------------------o||
|--------------|----------13--13-13----||
|-9--9--9-9-9--|-12-12-12-14--14-14----||
|-9--9--9-9-9--|-12-12-12--x---x--x---o||
|-7--7--7-7-7--|-10-10-10-12--12-12----||


   Chorus
||----------------|---------------|---------------|
||o---------------|---------------|---------------|
||----------------|-7--7-7--7---7-|---------------|
||--4--4--4-4-4---|-7--7-7--7---7-|-7--7--7-7-7---|
||o-4--4--4-4-4---|-5--5-5--5---5-|-7--7--7-7-7---|
||--2--2--2-2-2---|---------------|-5--5--5-5-5---|
|
|   Gtr III
||----------------|---------------|---------------|
||o---------------|---------------|---------------|
||----------2-----|-7--7-7--7-7---|---------------|
||--4--4--4---4---|-7--7-7----7-7-|-7--7----7-9-7-|
||o-4--4--------4-|-5--5-5------5-|-7--7--7-------|
||--2--2----------|---------------|-5--5----------|


|---------------||---------------|------------------|
|--------------o||---------------|-5-5-5-5-5-5-5-5--|
|-9--9-9--9--9--||-6--6-6--6---6-|-6-6-6-6-6-6-6-6--|
|-9--9-9--9--9--||-6--6-6--6---6-|-6-6-6-6-6-6-6-6--|
|-7--7-7--7--7-o||-4--4-4--4---4-|-4-4-4-4-4-4-4-4--|
|---------------||---------------|------------------|
|
|---------------||---------0-----|------------------|
|--------------o||---------------|-5---5-5---5------|
|-9--9-9--9--9--||-6--6-6----6---|-6---6-6---6-6----|
|-9--9-9--9--9--||-6--6-6------6-|-6---6-6---6-6-6--|
|-7--7-7--7--7-o||-4--4-4--------|-4---4-4---4-4-4--|
|---------------||---------------|------------------|


 Solo
  Gtr III
|----------------|--------------------|
|----------------|--------------------|
|-5-7-14---------|-12-----------------|
|----------------|----15-(15)---------|
|----------------|--------------------|
|----------------|--------------------|
|
| Gtr IV
|----------------|--------------------|
|----------------|--------------------|
|----------------|--7------7--7--7--7-|
|-4----4--4-4-4--|--7------7--7--7--7-|
|-4----4--4-4-4--|--5------5--5--5--5-|
|-2----2--2-2-2--|--------------------|


|-------------------------|--------------------------|
|-------------------------|--------------------------|
|-12----------12----------|-12-----------------------|
|----15-12-15----15-12-15-|----15---12-15---12tr10---|
|-------------------------|--------------------------|
|-------------------------|--------------------------|
|
|-------------------------|--------------------------|
|-------------------------|--------------------------|
|-------------------------|--9----9--9----9--------9-|
|--7-----7-----7--7--7----|--9----9--9----9--------9-|
|--7-----7-----7--7--7----|--7----7--7----7--------7-|
|--5-----5-----5--5--5----|--------------------------|


|---------------------------|-------------------------|
|---------------------------|----------------15-------|
|-10-12-12b14r10------------|-10-12-14-14-14-14-14-14-|
|----------------12---10-12-|-------------------------|
|---------------------------|-------------------------|
|---------------------------|-------------------------|
|
|---------------------------|-------------------------|
|---------------------------|-------------------------|
|---------------------------|--7-----7--7-----7-----7-|
|--4-----4--------4-4--4----|--7-----7--7-----7-----7-|
|--4-----4--------4-4--4----|--5-----5--5-----5-----5-|
|--2-----2--------2-2--2----|-------------------------|


                                  ~~
|---------------------------|-----------------|
|-15------------------------|-----------------|
|-14-14-12-14-12-12b14r==10-|-----------------|
|---------------------------|-10-12-----------|
|---------------------------|-----------------|
|---------------------------|-----------------|
|
|---------------------------|-----------------|
|---------------------------|-----------------|
|---------------------------|--9----9-9--9--9-|
|--7-----7-----7--7----7----|--9----9-9--9--9-|
|--7-----7-----7--7----7----|--7----7-7--7--7-|
|--5-----5-----5--5----5----|-----------------|


                                      ~~
|-------------------------|-----------------------|
|-------------------------|----11-13-11--13-16-15-|
|-12-10------------10b12r=|=10--------------------|
|-------13-10---13--------|-----------------------|
|-------------------------|-----------------------|
|-------------------------|-----------------------|
|
|-------------------------|-----------------------|
|-------------------------|-----------------------|
|-------------------------|--7-----7--7---7-----7-|
|--4-----4----4--4--4-----|--7-----7--7---7-----7-|
|--4-----4----4--4--4-----|--5-----5--5---5-----5-|
|--2-----2----2--2--2-----|-----------------------|


                                               ~~
|------------------------|-------------------------|
|------------------------|-------------------------|
|-17-15---17b19r==15-----|-------------------------|
|--------------------17--|-15-17b19r==15------15---|
|------------------------|---------------17--------|
|------------------------|-------------------------|
|
|------------------------|-------------------------|
|------------------------|-------------------------|
|------------------------|--9-------9--9----9----9-|
|--7----7-------7--7--7--|--9-------9--9----9----9-|
|--7----7-------7--7--7--|--7-------7--7----7----7-|
|--5----5-------5--5--5--|-------------------------|


               ~~
|---------------------------|-------------------------|
|---------------------------|-------------------------|
|---------------------------|-------------------------|
|-17b19r15-13-12---------12-|-14-15-17b19r==15---17---|
|------------------12-14----|-------------------------|
|---------------------------|-------------------------|
|
|---------------------------|-------------------------|
|---------------------------|-------------------------|
|---------------------------|--7-----7----7----7----7-|
|--4--------4----4--4--4----|--7-----7----7----7----7-|
|--4--------4----4--4--4----|--5-----5----5----5----5-|
|--2--------2----2--2--2----|-------------------------|


                              ~~~~~~~~~~~      ~~
|--------------------------|---------------------|
|-16-15--------------------|---------------------|
|-------17-15---17b19r==15-|---------------17----|
|--------------------------|-17--15---17------17-|
|--------------------------|---------------------|
|--------------------------|---------------------|
|
|--------------------------|---------------------|
|--------------------------|---------------------|
|--------------------------|--9---9-9----9-----9-|
|--7-----7----7--7----7----|--9---9-9----9-----9-|
|--7-----7----7--7----7----|--7---7-7----7-----7-|
|--5-----5----5--5----5----|---------------------|


                    ~~~~~~~~~~~
|-----------------------|--------------------|
|-----------------------|--------------------|
|-----------------------|--------------------|
|-15-17b19r=====15-12---|-(12)---------------|
|-----------------------|--------------------|
|-----------------------|--------------------|
|
|-----------------------|--------------------|
|-----------------------|---5--5-5-5-5-5-5-5-|
|--6-------6-6---6----6-|---6--6-6-6-6-6-6-6-|
|--6-------6-6---6----6-|---6--6-6-6-6-6-6-6-|
|--4-------4-4---4----4-|---4--4-4-4-4-4-4-4-|
|-----------------------|--------------------|


 Fill
|----------|------------|------------|--------|
|----------|------------|------------|--------|
|----------|------------|------------|--------|
|-4--------|------------|------------|--------|
|-4--------|-(4)--------|-(4)--------|-(4)----|
|-2--------|-(2)--------|-(2)--------|-(2)----|
|
|             >
|----------|------------|------------|--------|
|----------|------------|------------|--------|
|----------|------------|------------|--------|
|-4--------|------------|------------|--------|
|-4--------|-(4)--------|-(4)--------|-(4)----|
|-2--------|-(2)--------|-(2)--------|-(2)----|


   3rd Pre-Chorus
||------------------------|----------------------|---------------------|
||o-----------------------|----------------------|---------------------|
||--11-11-11-11-11-11-11--|--9---9--9---9--9-----|---------------------|
||--11-11-11-11-11-11-11--|--9---9--9---9--9-----|--9---9------9--9-9--|
||o--9--9--9--9--9--9--9--|--7---7--7---7--7-----|--9---9------9--9-9--|
||------------------------|----------------------|--7---7------7--7-7--|
|
||------------------------|----------------------|---------------------|
||o-19----19-19-19-19-19--|-17--17-17--17-17b19r=|=====================|
||------------------------|----------------------|-16--16b18r=14-------|
||------------------------|----------------------|---------------16----|
||o-----------------------|----------------------|---------------------|
||------------------------|----------------------|---------------------|


|---------------------------||-||----------------------------||
|--------------------------o||-||o--------------------------o||
|----------13-------13-13---||-||----------------------------||
|-12-12-12--x--------x--x---||-||--14-14-14-14-14-14-14-14---||
|-12-12-12-14-------14-14--o||-||o-14-14-14-14-14-14-14-14--o||
|-10-10-10-12-------12-12---||-||--12-12-12-12-12-12-12-12---||
|
|---------------------------||-||----------------------------||
|--------------------------o||-||o--------------------------o||
|-------------16b18r========||=||==13-13-13-13-13-13-13-13---||
|-18-16-18-------------18---||-||---x--x--x--x--x--x--x--x---||
|--------------------------o||-||o--x--x--x--x--x--x--x--x--o||
|---------------------------||-||--12-12-12-12-12-12-12-12---||


 Final Chorus
|------------------|-----------------------|--------------------|------------------|
|------------------|-----------------------|--------------------|------------------|
|------------------|--7-----7----7--7----7-|--------------------|--9--9-9--9-----9-|
|--4-----4--4-4-4--|--7-----7----7--7----7-|--7--7----7---7--7--|--9--9-9--9-----9-|
|--4-----4--4-4-4--|--5-----5----5--5----5-|--7--7----7---7--7--|--7--7-7--7-----7-|
|--2-----2--2-2-2--|-----------------------|--5--5----5---5--5--|------------------|
|
|------------------|-----------------------|--------------------|------------------|
|------------------|-----------------------|--------------------|------------------|
|------------------|----14-16b18r=====14---|-13-----(13)-14-13--|------------------|
|-14b16r===========|=16--------------------|--------------------|-14------------14-|
|------------------|-----------------------|--------------------|------------16----|
|------------------|-----------------------|--------------------|------------------|


|---------------------|-----------------------|----------------|---------------|
|---------------------|-----------------------|----------------|---------------|
|---------------------|--7-----7-7-----7----7-|----------------|--9--9-9--9--9-|
|--4-----4---4--4--4--|--7-----7-7-----7----7-|--7---7--7-7-7--|--9--9-9--9--9-|
|--4-----4---4--4--4--|--5-----5-5-----5----5-|--7---7--7-7-7--|--7--7-7--7--7-|
|--2-----2---2--2--2--|-----------------------|--5---5--5-5-5--|---------------|
|
|---------------------|-----------------------|----------------|---------------|
|---------------------|-----------------------|----------------|---------------|
|---------------------|-----------------------|----------------|---------------|
|-14b16r====11--------|-11---------11---------|-14s=16s========|=14------------|
|--------------14-16--|----14-16------14-16---|----------------|---------------|
|---------------------|-----------------------|----------------|---------------|


|---------------------------|---------------|------------------------|---------------|------------------------------|
|---------------------------|---------------|------------------------|---------------|------------------------------|
|---------------------------|--7--7-7--7--7-|------------------------|--9--9-9--9--9-|------------------------------|
|--4-----4-------4-4-4------|--7--7-7--7--7-|--7-----7-----7-7--7----|--9--9-9--9--9-|--4-----4-----4-4--4----------|
|--4-----4-------4-4-4------|--5--5-5--5--5-|--7-----7-----7-7--7----|--7--7-7--7--7-|--4-----4-----4-4--4----------|
|--2-----2-------2-2-2------|---------------|--5-----5-----5-5--5----|---------------|--2-----2-----2-2--2----------|
|
|---------------------------|---------------|------------------------|---------------|------------------------------|
|---------------------------|---------------|-14-17-18b19r===========|===============|==============================|
|-------14-16s18-------(18)s|=14------------|------------------18-14-|-18------------|-14-16-16b18r=====16b18-16b18-|
|-14-16---------------------|---------------|------------------------|---------------|------------------------------|
|---------------------------|---------------|------------------------|---------------|------------------------------|
|---------------------------|---------------|------------------------|---------------|------------------------------|


|-------------------------------------------------|------------------|-------------------------|
|-------------------------------------------------|------------------|-------------------------|
|--7-----------7-----7-----------7-----------7----|------------------|--9-----9-9-----9---9----|
|--7-----------7-----7-----------7-----------7----|--7-----7--7-7-7--|--9-----9-9-----9---9----|
|--5-----------5-----5-----------5-----------5----|--7-----7--7-7-7--|--7-----7-7-----7---7----|
|-------------------------------------------------|--5-----5--5-5-5--|-------------------------|
|
|-------------------------------------------------|------------------|-------------------------|
|-------------------------------------------------|------------------|-------------------------|
|-16b18-16b18-16b18-16b18-16b18-16b18-16b18-16b18-|-16b18r===========|=14------------14--------|
|-------------------------------------------------|------------------|----16-14---16-----16----|
|-------------------------------------------------|------------------|-------------------------|
|-------------------------------------------------|------------------|-------------------------|


|-----------------------|-------------------|
|-----------------------|--5-5-5-5--5-5-5-5-|
|--6-----6-6-------6--6-|--6-6-6-6--6-6-6-6-|
|--6-----6-6-------6--6-|--6-6-6-6--6-6-6-6-|
|--4-----4-4-------4--4-|--4-4-4-4--4-4-4-4-|
|-----------------------|-------------------|
|
|-----------------------|-16-------14-------|
|------------16b17r=====|===================|
|-16b18r================|===================|
|-----------------------|-------------------|
|-----------------------|-------------------|
|-----------------------|-------------------|


   Outro
    Gtr IV
||--------------------------|-----------------------|
||o-------------------------|-----------------------|
||--11----11-11----11-11-11-|-11---11-11---11-11-11-|
||--11----11-11----11-11-11-|--9----9--9----9--9--9-|
||o--9-----9--9-----9--9--9-|-11---11-11---11-11-11-|
||--------------------------|-----------------------|
|
|   Gtr III
||--------------------------|-----------------------|
||o-------10----------10----|-------9---------------|
||-----11-------11-------11-|---------11------------|
||--11----------------------|----9-------9----------|
||o-----------------9-------|-11-----------11--9----|
||--------------------------|-----------------------|


|----------------|--------------------||
|----------------|-------------------o||
|-9--9-9---9-9-9-|-7---7-7----7-7-7---||
|-9--9-9---9-9-9-|-7---7-7----7-7-7---||
|-7--7-7---7-7-7-|-5---5-5----5-5-5--o||
|----------------|--------------------||
|
|----------------|--------------------||
|----------------|-------------------o||
|----9-7-6-------|-----5-7b9r=5-------||
|----------9-7---|---7----------7-----||
|-7--------------|-5-----------------o||
|----------------|--------------------||


|-------------------------|-------------------------|---------------------------|---------------------|
|-------------------------|-------------------------|---------------------------|---------------------|
|-11-11-11-11-11-11-11-11-|-13-13-13-13-13-13-13-13-|-14-14-14-14-14---14-14-14-|-7-7---7-7---7-7-7-7-|
|--x--x--x--x--x--x--x--x-|--x--x--x--x--x--x--x--x-|--x--x--x--x--x----x--x--x-|-x-x---x-x---x-x-x-x-|
|--9--9--9--9--9--9--9--9-|-11-11-11-11-11-11-11-11-|-12-12-12-12-12---12-12-12-|-5-5---5-5---5-5-5-5-|
|-------------------------|-------------------------|---------------------------|---------------------|
|
|-------------------------|-------------------------|---------------------------|---------------------|
|-------10----------10----|--------9----------------|---------------------------|---------------------|
|----11--------9--------9-|-----------9-------------|--------9--7--6b7r=========|=======5-7b9r==5-----|
|-11----------------------|-----9-------11----------|--9-------------------7----|---7b9-----------7---|
|-----------------9-------|-11--------------9-11----|---------------------------|-5-------------------|
|-------------------------|-------------------------|---------------------------|---------------------|


|-------------------------|--------------------|-------------------|-----------------|
|-------------------------|--------------------|-------------------|-----------------|
|-11-11-11-11-11-11-11-11-|--9-9--9-9--9-9-9-9-|-7-7-7-7---7-7-7-7-|-7-7-7-7-7-7-7-7-|
|--x--x--x--x--x--x--x--x-|--x-x--x-x--x-x-x-x-|-x-x-x-x---x-x-x-x-|-x-x-x-x-x-x-x-x-|
|--9--9--9--9--9--9--9--9-|--7-7--7-7--7-7-7-7-|-5-5-5-5---5-5-5-5-|-5-5-5-5-5-5-5-5-|
|-------------------------|--------------------|-------------------|-----------------|
|
|                                                                                ~
|-------------------------|--------------------|-------------------|-----------------|
|----10-------------10----|---------9----------|-------------------|-7-5-------------|
|-11-------------------11-|------11---11-------|-----9-7b9---6-----|-----7-6-4-------|
|-------------11----------|----9---------9-----|---------------9-7-|-----------7-4---|
|-----------9--9--9-------|-11-------------9---|-7-----------------|-----------------|
|-------------------------|--------------------|-------------------|-----------------|


|------------------|-------------|-------------|---------*|
|------------------|-------------|-------------|---------*|
|--7---------------|--(7)--------|--(7)--------|--(7)----*|
|--x---------------|--(x)--------|--(x)--------|--(x)----*|
|--5---------------|--(5)--------|--(5)--------|--(5)----*|
|------------------|-------------|-------------|---------*|
|
|------------------|-------------|-------------|---------*|
|------------------|-------------|-------------|---------*|
|-14-16-16b18r=====|=(16)--------|-(16)--------|-(16)----*|
|------------------|-------------|-------------|---------*|
|------------------|-------------|-------------|---------*|
|------------------|-------------|-------------|---------*|


Добавлено: 23.09.2013
Другие материалы по этой песне:
  • Аккорды и текст

Страница создана 23.09.2013
http://primanota.ru/misc-unsigned-bands/genuine-innocence-something-for-nothing-chords.htm
Привет, Гость.
Предлагаем пройти революционный курс по гитаре.
Подарок от PrimaNota.Ru, забирай!