PrimaNota.ru - самый крупный в мире бесплатный архив песенных текстов, аккордов, табулатур и нот


Misc Unsigned Bands - Gary Stadler And Wendy Rule - Dance Of The Wild Faeries - аккорды и текст

Регистрация Запомнить меня
Войти через:  Facebook Google Twitter Vk Yandex Mail.ru

Misc Unsigned Bands - Gary Stadler And Wendy Rule - Dance Of The Wild Faeries - аккорды и текст

Печатать
Просмотров: 155
Gary Stadler And Wendy Rule - Dance Of The Wild Faeries
Misc Unsigned Bands
Dance of the wild faeries
By: Gary Stadler, Wendy Rule from the Album: Deep Within A Faerie Forest

Capo 3. fred
Finger picking pattern for verses:

  Am                     Dm           Am           Dm          F
e|---------------------------------------------------------------------------|
B|--------m-------m-----------m------------m------------m-----------m--------|
G|---i--------i-------------i---i--------i---i--------i---i-------i---i------|
D|-----p--------p--------p--------------------------p-----------p------------|
A|-p-----------------------------------p-------------------------------------|
E|----------p----------------------------------------------------------------|


  E            Am

e|---------------------------------------------------------------------------|
B|-----m---------------m-------m---------------------------------------------|
G|---i---i---------i-------i-------------------------------------------------|
D|-------------------p-------p-----------------------------------------------|
A|---------------p-----------------------------------------------------------|
E|-p---------------------p---------------------------------------------------|


Finger picking pattern for chorus:

  C                                    G                G

e|---------------------------------------------------------------------------|
B|-----m-------m----------m-------m---------m-------i---------m-------m------|
G|---i---i---i---i------i---i---i---i-----i---i---i---i-----i---i---i---i----|
D|---------p------------------p----------------------------------------------|
A|-p------------------p-------------------------p-----------------p----------|
E|--------------------------------------p-----------------p------------------|



  Dm         F         E           Am                    Bridge: Am

e|----------------------------------------------------------a---a--------------|
B|-----m----------m---------m-----------m-------m-----------m---m--------------|
G|---i---i------i---i-----i---i-------i---i---i---i---------i---i--------------|
D|-p----------p-----------------------------p-----------------p----------------|
A|----------------------------------p---------------------p--------------------|
E|----------------------p------------------------------------------------------|




Intro:

e|---2---0---0---0------0-0-0---0-1-0---0--------------------------------------|
B|----------------------------3-------3-----1h2p1-0-3-1------------------------|
G|-2---2---2---2----2-2---------------------------------2-2---1-2--------------|
D|----------------------------------------------------------2------------------|
A|-----------------------------------------------------------------------------|
E|-----------------------------------------------------------------------------|



Vers 1:
  Am                    Dm         Am
I wandered alone to the forest one night
Dm       F     E          Am
Led by a music strange to hear.
    Am                     Dm       Am
And followed the glow of a shimming light
     Dm             F         E       Am
That seemed to grow distant as I grew near.

Vers 2:
    Am                        Dm           Am
The woods were alive with the fragrance of spring
    Dm         F          E        Am
But winter was everywhere clear to see.
    Am                      Dm         Am
The moon shone bright and a bat on the wing
Dm          F          E       Am
Beckoned me closer and said to me:

Vers 3:
   Am                    Dm            Am
"A clearing close In the forest you'll find
  Dm       F          E     Am
A fabulous banquet, a fairy ball.
       Am                      Dm        Am
If you close your eyes and you open your mind
    Dm         F              E       Am
The veil disappears and you'll see it all.”


Chorus:
C                    G
Come and play as the wild fairies play
    Dm       F         E     Am
In a magical circle, a fairy ring.
   C                        G
You won't want to leave and forever you'll stay
          Dm        F         E
Where the vision is bright as spring.
C                  G
Come and dance the wild fairy dance
Dm        F         E       Am
Spin in a circle as fast as light.
C                      G
Once you begin you are caught in a trance
        Dm             F        E      Am
And the world can grow old in a single night.


Vers 4:
       Am                    Dm         Am
When I closed my eyes to the shimmering light
    Dm     F         E       Am
All memory faded and I could see.
       Am                 Dm      Am
That a mushroom circle of red and white
    Dm     F           E      Am
And myriad fairies surrounded me.


Vers 5:
  Am                   Dm       Am
Beyond all space and beyond all time
   Dm       F             E       Am
On gossamer wings did the fairies fly.
       Am               Dm       Am
With a joy unknown to a music sublime
    Dm      F           E            Am
The fairies danced, and there danced I.


Chorus
Bridge:
Whisper:  Am

"Those who seek us surely find us
See the trail we leave behind us
Some bewildered, some enlightened
Some are brave, some are frightened
Are we kind or are we vicious?
Nectar poison or delicious?
That, my sweet, you will discover
Fairy foe, or fairy lover."

Chorus

Vers 6:
  Am                    Dm         Am
I wandered alone to the forest one night
Dm       F     E          Am
Led by a music strange to hear.
       Am                      Dm      Am
If you happen to pass when the moon is bright
        Dm        F             E       Am
And the veils are thin you will find me here.
       Dm        F             E       Am
If the veils are thin you will find me here.

Outro:

e|-----------------------------------------------------------------------------|
B|-1h2p1-0-3-1-----------------------------------------------------------------|
G|-------------2-2---1-2-------------------------------------------------------|
D|-----------------2-----------------------------------------------------------|
A|-----------------------------------------------------------------------------|
E|-----------------------------------------------------------------------------|
Добавлено: 24.06.2013
Другие материалы по этой песне:
  • Аккорды и текст

Страница создана 24.06.2013
http://primanota.ru/misc-unsigned-bands/gary-stadler-and-wendy-rule-dance-of-the-wild-faeries-chords.htm
Привет, Гость.
Предлагаем пройти революционный курс по гитаре.
Подарок от PrimaNota.Ru, забирай!