PrimaNota.ru - самый крупный в мире бесплатный архив песенных текстов, аккордов, табулатур и нот


Misc Unsigned Bands - Forsake The Prophecy - Did I Mention Karma - таба

Регистрация Запомнить меня
Войти через:  Facebook Google Twitter Vk Yandex Mail.ru

Misc Unsigned Bands - Forsake The Prophecy - Did I Mention Karma - таба

Печатать
Просмотров: 75
All guitars standard tuning (EADGBe)

Forsake The Prophecy - Did I Mention Karma? (2013)

Tabbed by: Living Bodies

Legend
-------
b - Bend

                           guitar1 (clean) 0:00 to 0:21
e|--------------------------------------------------------------------------|
B|--------------------------------------------------------------------------|
G|--------------------------------------------------------------------------|
D|------10-----6-----3-----3------10-----6-----3----------------------------|
A|---10------6-----3-----3-----10------6-----3------------------------------|
E|-8-------4-----1-----1-----8-------4-----1--------------------------------|
                         Guitar2 (Distortion) 0:21 to 0:58
e|--------------------------------------------------------------------------|
B|--------------------------------------------------------------------------|
G|-----------------5-3-1-0--------------------------------------------------| X6
D|-----5-3-1-0-----------------6-5-3-1---1-1-1------------------------------|
A|-3-3---------------------------------3-------1b---------------------------|
E|-------------4-4---------1-1----------------------------------------------|

                         Guitar2 (Distortion) 0:58 to 1:08
e|--------------------------------------------------------------------------|
B|--------------------------------------------------------------------------|
G|--------------------------------------------------------------------------| X2
D|---5-3-1-0---5-3-1-0---5-3-1-0-6-5-3-1-3-1-0------------------------------| 
A|-3---------3---------3-----------------------3----------------------------|
E|--------------------------------------------------------------------------|

Facebook page- https://www.facebook.com/ForsakeTheProphecy?ref=ts&fref=ts

Official lyric video- http://www.youtube.com/watch?v=BxVF-omQLy8

Free MP3 download link (Did I Mention Karma?)- 
http://www.mediafire.com/download/qvv87g7ws9mtvwk/Did+I+Mention+Karma+MP3.mp3
Добавлено: 06.09.2013
Другие материалы по этой песне:
  • Аккорды и текст

Страница создана 06.09.2013
http://primanota.ru/misc-unsigned-bands/forsake-the-prophecy-did-i-mention-karma-chords.htm
Привет, Гость.
Предлагаем пройти революционный курс по гитаре.
Подарок от PrimaNota.Ru, забирай!