PrimaNota.ru - самый крупный в мире бесплатный архив песенных текстов, аккордов, табулатур и нот


Misc Unsigned Bands - Feltbeats - Under Stars - таба

Регистрация Запомнить меня
Войти через:  Facebook Google Twitter Vk Yandex Mail.ru

Misc Unsigned Bands - Feltbeats - Under Stars - таба

Печатать
Просмотров: 58
Уроки эстрадного вокала в Санкт-Петербурге
Under Stars-Tom Felton
So I noticed, while browsing youtube that there weren't any tabs for this yet, which is
insane considering how easy it is, and how really kind of beautiful it is. Yeah, I'm a
I know. This is the first time I've tabbed anything, so if I've missed any kind of 
I sincerely apologize.

Anyways, the tabs probably aren't quite spot on, but they're close enough that nobody
be able to tell (especially since the song isn't well known mwahaha). enjoy.

e)---------------------------|
b)-----3-----3-----3-----3---|
g)---2-----0-----2-----0-----|
d)-0-----2-----4-----2-------|  x3
a)---------------------------|
E)---------------------------|

e)---------------------------|----------------------|
b)-----3-----3-----3---------|-----------3----------|
g)---2-----0-----2-----------|--------0-------------|
d)-0-----2-----4-------------|-----2----------------|
a)---------------------------|----------------------|
E)---------------------------|----------------------|

e)---------------------------------|---------------------------------|
b)-----3-----3---------3-----3-----|-----3-----3---------3-----3-----|
g)---2-----2-----2---0-----0-----0-|---2-----2-----2---0-----0-----0-|
d)-0-----0-----0---2-----2-----2---|-4-----4-----4---2-----2-----2---|
a)---------------------------------|---------------------------------|
E)---------------------------------|---------------------------------|

e)-----0-----0---------2-----2-----|-----2-----2---------2-----2-----|
b)-----3---------3-----3---------3-|-----3---------3-----3---------3-|
g)---2-----2-----2---0-----0-----0-|---2-----2-----2---0-----0-----0-|
d)-0-----0-----0---2-----2-----2---|-4-----4-----4---2-----2-----2---|
a)---------------------------------|---------------------------------|
E)---------------------------------|---------------------------------|

(once the verses start, you can pretty much either go back to this):
e)---------------------------------|---------------------------------|
b)-----3-----3---------3-----3-----|-----3-----3---------3-----3-----|
g)---2-----2-----2---0-----0-----0-|---2-----2-----2---0-----0-----0-|
d)-0-----0-----0---2-----2-----2---|-4-----4-----4---2-----2-----2---|
a)---------------------------------|---------------------------------|
E)---------------------------------|---------------------------------|

(or switch to chords):
e)---2---0---0----2---0---|
b)---3---3---3----3---3---|
g)---2---0---2-or-4---0---|
d)---0---2---4----4---2---|
a)---x---0---x----x---0---|
E)---x---x---x----x---x---|

d'aw, how sweet.
Добавлено: 10.02.2014
Другие материалы по этой песне:
  • Аккорды и текст

Страница создана 10.02.2014
http://primanota.ru/misc-unsigned-bands/feltbeats-under-stars-chords.htm
Привет, Гость.
Предлагаем пройти революционный курс по гитаре.
Подарок от PrimaNota.Ru, забирай!