PrimaNota.ru - самый крупный в мире бесплатный архив песенных текстов, аккордов, табулатур и нот


Misc Unsigned Bands - Davedays - Burnin Up Miley - таба

Регистрация Запомнить меня
Войти через:  Facebook Google Twitter Vk Yandex Mail.ru

Misc Unsigned Bands - Davedays - Burnin Up Miley - таба

Печатать
Просмотров: 41
                                        *****************************
                                            Burnin' Up Miley
                                        *****************************

Tuning is in Dropped D (Low E is the only string tuned differently, one step down to D)
SYMBOL: b=bend, h=hammer on, p=pull off, s=slide

E|------------| (thinest)
B|------------|
G|-2--5-------|
D|-2--5--5--3-|
A|-0--3--5--3-|
D|-------5--3-| (fattest)
( A, C, G, F )

Intro

"I lost a bet, between Shay Carl..."
E|-----------------------------------------------------|
B|-----------------------------------------------------|
G|-2-----2--2---5-----5--5-----------------------------|
D|-2-----2--2---5-----5--5---5-----5--5---3-----3---3--|
A|-0-----0--0---3-----3--3---5-----5--5---3-----3---3--|
D|---------------------------5-----5--5---3-----3---3--| x2

Chorus Rythum Guitar (palm muted)

E|---------------------------------------------------------------------|
B|---------------------------------------------------------------------|
G|-----2-------2--------5-------5--------------------------------------|
D|-2-2-2-222-2-2-22-5-5-5-555-5-5-55-----5-------5--------3-------3----|
A|-0-0-0-000-0-0-00-3-3-3-333-3-3-33-5-5-5-555-5-5-55-3-3-3-333-3-3-33-|
D|-----------------------------------5-5-5-555-5-5-55-3-3-3-333-3-3-33-|

(hard strumming) GUITAR 1

E|---------------------------------------------------------------------|
B|---------------------------------------------------------------------|
G|-2-2-2-2-2-2-2-2--5-5-5-5-5-5-5-5--7-7-7-7-7-7-7-7--5-5-5-5-5-5-5-5--|
D|-2-2-2-2-2-2-2-2--5-5-5-5-5-5-5-5--5-5-5-5-5-5-5-5--3-3-3-3-3-3-3-3--|
A|-0-0-0-0-0-0-0-0--3-3-3-3-3-3-3-3--5-5-5-5-5-5-5-5--3-3-3-3-3-3-3-3--|
D|-----------------------------------5-5-5-5-5-5-5-5--3-3-3-3-3-3-3-3--|

Chorus Lead Guitar

E|---------------------------------------------------------------------|
B|---1-----1-----1---5-----5-----5-------------------------------------|
G|-----2-2---2-2---2---5-5---5-5---5-4-----4-----4---5-----5-----5-----|
D|-------------------------------------5-5---5-5---5---3-3---3-3---3---|
A|---------------------------------------------------------------------|
D|---------------------------------------------------------------------|

Chorus Lead Guitar

E|---------3-------3-------8-------8-------7-------7-----|
B|---1---1---1---1---5---5---5---5-----------------------|
G|-----2-------2-------5-------5-----4---4---4---4---3---|
D|-------------------------------------5-------5---------|
A|-------------------------------------------------------|
D|-------------------------------------------------------|

Solo

E|---12------12--------------------------------------------------------|
B|---15b17---15b17b15-13---12h13-15-13-12h13p12------------------------|
G|-----------------------------------------------12-12h14-12h14p12-----|
D|---------------------------------------------------------------------|
A|---------------------------------------------------------------------|
D|---------------------------------------------------------------------|

E|----------------------------------------|
B|----------------------------------------|
G|----------------------------------------|
D|-15-14-12h14p12--------14--15--12s9-10--|
A|----------------14-15-------------------|
D|----------------------------------------|

2nd Verse Lead Guitar

E|---------------------------------------------------------------------|
B|---1--1--1--1--5--5--5--5--------------------------------------------|
G|---2--2--2--2--5--5--5--5--4--4--4--4--5--5--5---4-5-4-5-7-5-4-5-----|
D|---------------------------5--5--5--5--3--3--3-----------------------|
A|---------------------------------------------------------------------|
D|---------------------------------------------------------------------|

E|---------------------------------------------------------------------|
B|---1-----1-----1---5-----5-----5-------------------------------------|
G|-----2-2---2-2---2---5-5---5-5---5-4-----4-----4h5-------------------|
D|-------------------------------------5-5---5-5------3--2--0--2-------|
A|---------------------------------------------------------------------|
D|---------------------------------------------------------------------|

Chorus 2 Guitars

E|---------------------------------------------------------------------|
B|---------------------------------------------------------------------|
G|-2-2-2-2-2-2-2-2--5-5-5-5-5-5-5-5--7-7-7-7-7-7-7-7--5-5-5-5-5-5-5-5--|
D|-2-2-2-2-2-2-2-2--5-5-5-5-5-5-5-5--5-5-5-5-5-5-5-5--3-3-3-3-3-3-3-3--|
A|-0-0-0-0-0-0-0-0--3-3-3-3-3-3-3-3--5-5-5-5-5-5-5-5--3-3-3-3-3-3-3-3--|
D|-----------------------------------5-5-5-5-5-5-5-5--3-3-3-3-3-3-3-3--|x2

Lead 2nd Chours Last Measure(s)

E|------------------------------------------------|
B|------------------------------------------------|
G|-77777777-5555-10-9-7777-10 12-5555-7--9--10-9--|
D|-xxxxxxxx-xxxx-x--x-xxxx-x--x--xxxx-x--x--x--x--|
A|-99999999-3333-8--7-5555-8 -10-3333-5--7--8--7--|
D|------------------------------------------------|

Ending is the intro chords and then the Chorus Lead Guitar. Hope this helped you all! I 
on adding audio and video to help.
Добавлено: 30.08.2013
Другие материалы по этой песне:
  • Аккорды и текст

Страница создана 30.08.2013
http://primanota.ru/misc-unsigned-bands/davedays-burnin-up-miley-chords.htm
Привет, Гость.
Предлагаем пройти революционный курс по гитаре.
Подарок от PrimaNota.Ru, забирай!