PrimaNota.ru - самый крупный в мире бесплатный архив песенных текстов, аккордов, табулатур и нот


Misc Unsigned Bands - Danisnotonfire - Sunshine Bananas - аккорды и текст

Регистрация Запомнить меня
Войти через:  Facebook Google Twitter Vk Yandex Mail.ru

Misc Unsigned Bands - Danisnotonfire - Sunshine Bananas - аккорды и текст

Печатать
Просмотров: 59
Danisnotonfire - Sunshine Bananas
Misc Unsigned Bands
That's the way megangore plays it no problem you're welcome.
http://soundcloud.com/megangore/sunshine-bananas-by



Melody:

E|---------------2--2--3-2-0-----0-----------------|
B|--0--0---0-3---------------3-1---0---0--0--1-0---|
G|-------2--------------------------------------2--|
D|-------------------------------------------------|
A|-------------------------------------------------|
E|-------------------------------------------------|

E|-------------2--2--3-2-0---0-----7-7--5--3-------|
B|----0---0-3--------------3---0-------------------|
G|--0---2------------------------------------------|
D|-------------------------------------------------|
A|-------------------------------------------------|
E|-------------------------------------------------|

Chords:

G
I like bananas
D                   C
I like bananas in the sunshine
C
Sunshine bananas

G
I like bananas 
D                  C
I like bananas on the moon
C
Moon moon moon
Добавлено: 22.06.2013
Другие материалы по этой песне:
  • Аккорды и текст

Страница создана 22.06.2013
http://primanota.ru/misc-unsigned-bands/danisnotonfire-sunshine-bananas-chords.htm
Привет, Гость.
Предлагаем пройти революционный курс по гитаре.
Подарок от PrimaNota.Ru, забирай!