PrimaNota.ru - самый крупный в мире бесплатный архив песенных текстов, аккордов, табулатур и нот


Misc Unsigned Bands - Collin Mcloughlin - Save The World - аккорды и текст

Регистрация Запомнить меня
Войти через:  Facebook Google Twitter Vk Yandex Mail.ru

Misc Unsigned Bands - Collin Mcloughlin - Save The World - аккорды и текст

Печатать
Просмотров: 125
Уроки эстрадного вокала в Санкт-Петербурге
Collin Mcloughlin - Save The World
Misc Unsigned Bands
Collin McLoughlin - Save The World (Swedish House Mafia cover)
Tuning: Standard (E A D G B E)
Key: F minor (F G Ab Bb C Db Eb F) with a capo on the eight fret, A minor (A B C D E F G A) without
Tempo: 128 bpm
Transcribed by Robert from Astlessons



[Intro]: Am    C    F   F/G   x4

Am           C                  F
Into the streets, we're coming down
                  F/G
We never sleep, never get tired
Am           C                  F
Some urban fields and suburban lights

F/G           Am                       C
Turn up the crowd up now, we'll never back down
                 F
Shoot down the skyline, watch it on primetime
F/G          Am              C                    F
Turn up the love now, listen up now, turn up the love

 F/G         Am       C       F      F/G          Am      C       F
Who's gonna save the world tonight, who's gonna bring me back to life
F/G          Am       C      F  F/G          Am       C       F   F/G
We're gonna make it, you and I, we're gonna save the world tonight

[Interlude]: Am    C    F   F/G   x4

Am           C                     F
So far from home, it's for the better
                       F/G           Am
And what we dream, it's all that matters
              C       F
We're on our way, united

F/G           Am                       C
Turn up the crowd up now, we'll never back down
                 F
Shoot down the skyline, watch it on primetime
F/G          Am              C                    F
Turn up the love now, listen up now, turn up the love

 F/G         Am       C       F      F/G          Am      C       F
Who's gonna save the world tonight, who's gonna bring my back to life
F/G          Am       C      F  F/G          Am       C       F
We're gonna make it, you and I, we're gonna save the world tonight
 F/G         Am       C       F      F/G          Am      C       F
Who's gonna save the world tonight, who's gonna bring my back to life
F/G          Am       C      F  F/G          Am       C
We're gonna make it, you and I, we're gonna save the world tonight



[Intro] x2

  Am                C                 F                         F/G
|-----------------|-----------------|-----------------|-----------------|
|-------1---1-----|-------1---1-----|-------1---------|-------1-------1-|
|-----2---------2-|-----0---------0-|---2-------2---2-|---2-------2-----|
|-----------------|-----------------|-----3-----------|-----3-------3---|
|-0-----------0---|/3-----------3---|-----------------|-----------------|
|-----------------|-----------------|-1-----------1---|-1-------3-------|

  Am                C                 F                         F/G
|-----------------|-----------------|-1---------------|-----------------|
|-----1-1-------1-|-------1---1-----|-------1---------|-------1-------1-|
|---2-------2-----|-----0---------0-|---2-------2---2-|---2-------2-----|
|-----------------|-----------------|-----3-----------|-----3-------3---|
|-0-----------0---|/3-----------3---|-----------------|-----------------|
|-----------------|-----------------|-1-----------1---|-1-------3-------|


(To play the song this way you have to tune the D string up one whole step 
and high E string down a half step)



Chords:
Am    (X 0 2 2 1 X)
C     (X 3 2 0 1 0)
F     (1 3 3 2 1 1)
F/G   (3 X 3 2 1 1)

Clarification:
Chordname (E A D G B E)
X = Don't play / Muffle

So either put a capo on the eight fret or transpose this to +8 for the original key



If you like this transcription, feel free to check out my YouTube channel where I post tutorials:
https://www.youtube.com/astlessons



//Robert
Добавлено: 05.09.2015
Другие материалы по этой песне:
  • Аккорды и текст

Страница создана 05.09.2015
http://primanota.ru/misc-unsigned-bands/collin-mcloughlin-save-world-chords.htm
Привет, Гость.
Предлагаем пройти революционный курс по гитаре.
Подарок от PrimaNota.Ru, забирай!