PrimaNota.ru - самый крупный в мире бесплатный архив песенных текстов, аккордов, табулатур и нот


Misc Unsigned Bands - Climb To Love - Proxima Parada - аккорды и текст

Регистрация Запомнить меня
Войти через:  Facebook Google Twitter Vk Yandex Mail.ru

Misc Unsigned Bands - Climb To Love - Proxima Parada - аккорды и текст

Печатать
Просмотров: 58
Уроки эстрадного вокала в Санкт-Петербурге
Climb To Love - Proxima Parada
Misc Unsigned Bands
-------------------------------------------------------------------------------
                       Climb To Love - Proxima Parada
-------------------------------------------------------------------------------
Tabbed by: mr.mick.d

This is an amazing song, so much fun to play. If you want to listen to it (will definitely help),
you can find it at http://www.proximaparadamusic.com/ or on bandcamp as well.


Tuning: Standard

VERSE
C#m7      x46454
B         x24442
A7M       x02120

CHORUS
F#m       x 9 11 9 10 9
C#m7      9 11 9 9 9 9
A7M       x x 7 9 9 9
B         7 9 9 8 7 7
Abm       x 11 13 11 12 11
A         5 7 7 6 5 5

D#m7b5         x5656x
Ab7            464544
A6     (no 5)  5x567x

  
  This is the guitar part played after the piano intro and throughout much of the song.
  There are variations in how it's played, but this is is the base of it.

[intro]

   C#m7            B         A7M  

e|---------x----------x--------------4---2-0--------------------------------|
B|------5--x----5--4--x----4--2------2---2-2--------------------------------|
G|------4--x----4--4--x----4--1------1---1----------------------------------|
D|----6----x----6--4--x----4--2---------------------------------------------|
A|--4------x--4----2--x--2----0----0---0---0--------------------------------|
E|--------------------------------------------------------------------------|



                 C#m7          B
I've been on the edge before.
                 A7M  
Yeah, You know I really tried it.
              C#m7         B
Nothing I had seen before
            A7M  
left me absolutely blinded.
          C#m7            B
Ooh and I feel it, babe,
              A7M  
see it on the other side.
                   C#m7          B
I know what you're looking for,
              A7M  
reasons why I try to hide.


        F#m        C#m7      A7M        B
I gotta climb to love
           F#m   C#m7      A7M        B
if I wanna fall, woah oh...
        F#m        C#m7      A7M        B
I gotta climb to love
           F#m   Abm   A
if I wanna fall, fall, fall.


[intro x2]

          C#m7            B
Now I see another light,
                A7M  
never seen this kind before.
                C#m7             B
Always seems to burn so bright,
                A7M  
always seems to warm my world.
          C#m7             B
And now I feel it, babe,
              A7M  
now I'm gonna let it be.
             C#m                B
Hung dry and left there naked,
                      A7M  
This fear has got the best of me


        F#m        C#m7      A7M        B
I gotta climb to love
           F#m   C#m7      A7M        B
if I wanna fall, woah oh...
        F#m        C#m7      A7M        B
I gotta climb to love
           F#m   Abm   A
if I wanna fall, fall, fall.


[bridge]  **a lot more swing to this part

   D#m7b5              Ab7                C#m7
e|-------------------------------------------------------------------------------|
B|----6---6-6---6--------4---4-4---4---------5---5--7--5--4h5p4---4--------------|
G|----5---5-5---5--------5---5-5---5---------4---4--4--4---------4---------------|
D|----6---6-6---6--------4---4-4---4---------6---6--6--6--------6----------------|
A|-5-----5---(5)--------------------------4-----4--------------------------------|
E|---------------------4----4---(4)----------------------------------------------|
  **play this tab throughout the bridge, save the last line.

D#m7b5                    Ab7                    C#m7
      And I've worn every scar from my past of ambition.
D#m7b5                        Ab7                            C#m7
      With each chance that I take, there's always something missin'.
D#m7b5                      Ab7
      With each love that's lost,
               C#m7                 D       A       A6     (no 5) **strum this hard twice
got my fingers crossed with nothing else to give


[intro x4]


        F#m        C#m7      A7M        B
I gotta climb to love
           F#m   C#m7      A7M        B
if I wanna fall, woah oh...
        F#m        C#m7      A7M        B
I gotta climb to love
           F#m   Abm   A
if I wanna fall, fall, fall.

************************************

| /   slide up
| \   slide down
| h   hammer-on
| p   pull-off
| ~   vibrato
| +   harmonic
| x   Mute note
| b   Bend
| pb  Pre-bend
| br  Bend release
| pbr Pre-bend release
| brb Bend release bend

************************************
Добавлено: 21.02.2016
Другие материалы по этой песне:
  • Аккорды и текст

Страница создана 21.02.2016
http://primanota.ru/misc-unsigned-bands/climb-to-love-proxima-parada-chords.htm
Привет, Гость.
Предлагаем пройти революционный курс по гитаре.
Подарок от PrimaNota.Ru, забирай!