PrimaNota.ru - самый крупный в мире бесплатный архив песенных текстов, аккордов, табулатур и нот


Misc Unsigned Bands - Cartoon Network Groovies - Incredible Shrinking Day - таба

Регистрация Запомнить меня
Войти через:  Facebook Google Twitter Vk Yandex Mail.ru

Misc Unsigned Bands - Cartoon Network Groovies - Incredible Shrinking Day - таба

Печатать
Просмотров: 57
Уроки эстрадного вокала в Санкт-Петербурге
Incredible Shrinking day - Cartoon Network Groovies

Listen to the song to check out the rhytm...here's the page

http://www.youtube.com/watch?v=D9cr4HvQmj8

Intro
|-------------------------------------------------------------|
|-------------------------------------------------------------|
|-0--2--4--0--2--4--0--2--4-----------------------------------|
|-----------------------------5--5----------------------------|
|-------------------------------------------------------------|
|-------------------------------------------------------------|

Verse
|-----------------|
|-----------------|
|---------5--5----|
|--5--5---5--5----|
|--5--5---3--3----| this part is played 9 times I think.
|--3--3-----------|

|-----------------|
|-----------------|
|----7------------|
|----7------------|
|----5------------| this part is played around 6 or 7 times.
|-----------------|

Pre-Chorus
|-------------------------------------------------------------|
|-------------------------------------------------------------|
|-------------------------------------------------------------|
|--7-7-7-7----8-9-10------------------------------------------|
|--7-7-7-7----8-9-10------------------------------------------|
|--5-5-5-5----6-7-8-------------------------------------------|



|-------------|
|-------------|
|-------------|
|---10--------|
|---10--------|
|---8---------|this part is played around 6 times, and the last time you let it 
ring...


Chorus
|-----------------------|
|-----------------------|
|------5-5-7-7-7-7------|
|--5-5-5-5-7-7-7-7------|
|--5-5-3-3-5-5-5-5------|
|--3-3------------------|x3


|-------------|
|-------------|
|-------------|
|---10--------|
|---10--------|Let it ring,and then play it a couple more times
|---8---------|



Verse
|-----------------|
|-----------------|
|---------5--5----|
|--5--5---5--5----|
|--5--5---3--3----| 
|--3--3-----------|

Pre-Chorus
|-------------------------------------------------------------|
|-------------------------------------------------------------|
|-------------------------------------------------------------|
|--7-7-7-7----8-9-10------------------------------------------|
|--7-7-7-7----8-9-10------------------------------------------|
|--5-5-5-5----6-7-8-------------------------------------------|


|-------------|
|-------------|
|-------------|
|---10--------|
|---10--------|
|---8---------|Let it ring, and then play it a couple more times(check out the 
rhytm)


Chorus
|-----------------------|
|-----------------------|
|------5-5-7-7-7-7------|
|--5-5-5-5-7-7-7-7------|
|--5-5-3-3-5-5-5-5------|
|--3-3------------------|x3


|-------------|
|-------------|
|-------------|
|---10--------|
|---10--------|keep playing it a couple more times
|---8---------|


Verse
|-----------------|
|-----------------|
|---------5--5----|
|--5--5---5--5----|
|--5--5---3--3----| 
|--3--3-----------|


Pre-Chorus
|-------------------------------------------------------------|
|-------------------------------------------------------------|
|-------------------------------------------------------------|
|--7-7-7-7----8-9-10------------------------------------------|
|--7-7-7-7----8-9-10------------------------------------------|
|--5-5-5-5----6-7-8-------------------------------------------|


|-------------|
|-------------|
|-------------|
|---10--------|
|---10--------|
|---8---------|keep playing it...the let it ring...and then began playing it again
(check out the rhytm)



Chorus
|-----------------------|
|-----------------------|
|------5-5-7-7-7-7------|
|--5-5-5-5-7-7-7-7------|
|--5-5-3-3-5-5-5-5------|
|--3-3------------------|x3


|-------------|
|-------------|
|-------------|
|---10--------|
|---10--------|
|---8---------|keep playing it


Verse
|-----------------|
|-----------------|
|---------5--5----|
|--5--5---5--5----|
|--5--5---3--3----| 
|--3--3-----------| keep playing and then...



|-------------|
|-------------|
|-------------|
|---5---------|
|---5---------|
|---3---------|x3


that's it!!

I think it's pretty easy.
Добавлено: 05.09.2013
Другие материалы по этой песне:
  • Аккорды и текст

Страница создана 05.09.2013
http://primanota.ru/misc-unsigned-bands/cartoon-network-groovies-incredible-shrinking-day-chords.htm
Привет, Гость.
Предлагаем пройти революционный курс по гитаре.
Подарок от PrimaNota.Ru, забирай!