PrimaNota.ru - самый крупный в мире бесплатный архив песенных текстов, аккордов, табулатур и нот


Misc Unsigned Bands - Broan Hander - Pirate - таба

Регистрация Запомнить меня
Войти через:  Facebook Google Twitter Vk Yandex Mail.ru

Misc Unsigned Bands - Broan Hander - Pirate - таба

Печатать
Просмотров: 57
Intro

C                        Em
|------------------------|--------------------------|
|----------1-------------|----------0---------------|
|-------0--------0-----0-|-------0--------0-----0---|
|----2--------------2----|----2--------------2------|
|-3----------------------|-2------------------------|
|------------------------|--------------------------|
Dsus2                    G
|------------------------|--------------------------|
|----------3-------------|----------0---------------|
|-------0--------0-----0-|----------------0-----0---|
|----2--------------2----|-------0-----------0------|
|-0----------------------|----2---------------------|
|------------------------|-3------------------------|

Then they just strum
Em     Em    Am     G
|0-----0-----0------3------|
|0-----0-----1------0------|
|0-----0-----2------0------|
|2-----2-----2------0------|
|2-----2-----0------2------|
|0-----0------------3------|

Then do the intro one more time

Добавлено: 24.01.2014
Другие материалы по этой песне:
  • Аккорды и текст

Страница создана 24.01.2014
http://primanota.ru/misc-unsigned-bands/broan-hander-pirate-chords.htm
Привет, Гость.
Предлагаем пройти революционный курс по гитаре.
Подарок от PrimaNota.Ru, забирай!