PrimaNota.ru - самый крупный в мире бесплатный архив песенных текстов, аккордов, табулатур и нот


Misc Unsigned Bands - Axata Ft Sagar Raaj - Sochirahechu - аккорды и текст

Регистрация Запомнить меня
Войти через:  Facebook Google Twitter Vk Yandex Mail.ru

Misc Unsigned Bands - Axata Ft Sagar Raaj - Sochirahechu - аккорды и текст

Печатать
Просмотров: 26
Уроки эстрадного вокала в Санкт-Петербурге
Axata Ft Sagar Raaj - Sochirahechu
Misc Unsigned Bands
Tuning
Capo 1

D                  F#m
Pransanna cha maan Na chinta kunai
Bm            F#m
Taipani nayan Khojdacha kehi
D             F#m
Bujaeeeh kina Sakinnnahh bujna
Bm           F#m
Apahieh bhab anyol ma chan
D            F#m
Galaath sahi thahacha sabai
Bm                 F#m
Taipani dajna kina sakindaina

E-------------------------------2-----2----------------------l
B-------------------------------3-- --2----------------------l
G--------------------------2----2-----2---2-2h4-2------------l
D------------------4-5----------------4 -----------------4-2-l
A------------------------------------ 4 ---------------------l
E------------------------------------------------------------l
[Socheraheychau k garna sakchau]x2

Music


E---5s7---7---7-----5-----3-----2-----3----3h5------2----5s7----7-----7-----5-----3----2-----3----3h5-----5-l
B-----------------------------------------------------------------------------------------------------------l
G-----------------------------------------------------------------------------------------------------------l
D-----------------------------------------------------------------------------------------------------------l
A-----------------------------------------------------------------------------------------------------------l
E-----------------------------------------------------------------------------------------------------------l

D                   F#m
Pyacool cha taan na uttar katai
Bm              F#m
Taipani chayean cha almalaundai

D           F#m
Samaya kina simit hudaina
Bm             F#m
Adhura yi paal bileein huncha
D             F#m
Chahana sabai espastah nai chan
Bm                  F#m 
Teipani kehi yeahaa sameytin nna
D                 F#m
[Socheraheychau k garna sakchau]x2
Добавлено: 17.02.2016
Другие материалы по этой песне:
  • Аккорды и текст

Страница создана 17.02.2016
http://primanota.ru/misc-unsigned-bands/axata-ft-sagar-raaj-sochirahechu-chords.htm
Привет, Гость.
Предлагаем пройти революционный курс по гитаре.
Подарок от PrimaNota.Ru, забирай!