PrimaNota.ru - самый крупный в мире бесплатный архив песенных текстов, аккордов, табулатур и нот


Misc Unsigned Bands - Audio Epica - Its Not Crazy Talk Im Just Expressing Myself - таба

Регистрация Запомнить меня
Войти через:  Facebook Google Twitter Vk Yandex Mail.ru

Misc Unsigned Bands - Audio Epica - Its Not Crazy Talk Im Just Expressing Myself - таба

Печатать
Просмотров: 41
this song is cool and it only took a day to make (notice) alot of palm muting is involved.

drop d tuning      intro (PART ONE)
>=slide


e]-------------------------------------|
b]-------------------------------------|
g]-------------------------------------|
d]--121312--12-------------------------|
a]--------15--151312-------------------|
d]-------------------------------------|
                   1x

pre verse
(plam mute open strings)
--------------------------------------------------------------|
--------------------------------------------------------------|
--------------------------------------------------------------|
----------------------------5----------------121312--12-------|
000-000-000-000-000-000-000-5-000-000-000-000------15--151312-|
000-000-000-000-000-000-000-5-000-000-000-000-----------------|
                      6x

(guitar lick)
--------------------------------------------------------------|
--------------------------------------------------------------|
--------------------------------------------------------------|
121312--12------121312--12------121312--12--------------------|
------15--151312------15--151312------15--151312--------------|
--------------------------------------------------------------|


-----------------------------------------------------------------|
-----------------------------------------------------------------|
-----------------------------------------------------------------|
-6-5-3-5-3-0-1------(HOLD OUT)-----------------------------------|
-6-5-3-5-3-0-1------(HOLD OUT)-----------------------------------|
-6-5-3-5-3-0-1------(HOLD OUT)-----------------------------------|

break down
(palm muted)
--------------------------------------------------------------------|
--------------------------------------------------------------------|
--------------------------------------------------------------------|
------------------6-5-3-5-3-1-----------------------------3(bend)---|
0000-000-000-0000-6-5-3-5-3-1-0000-000-000-0000-6-5-3-5-3-----------|
0000-000-000-0000-6-5-3-5-3-1-0000-000-000-0000-6-5-3-5-3-----------|


----------------------------------------------------------------------|
----------------------------------------------------------------------|
--------------------(slow down)---------------------------------------|
------------------6-5-3-5-3-0-1--(HOLD OUT)---------------------------|
0000-000-000-0000-6-5-3-5-3-0-1--(HOLD OUT)---------------------------|
0000-000-000-0000-6-5-3-5-3-0-1--(HOLD OUT)---------------------------|


guitar 2 (PART TWO)
------------------------------------------------------------------------|
------------------------------------------------------------------------|
------------------------------------------------------------------------|
------------------------------------------------------------------------|
--3-5-6--3-5-6--3-5-6-8-6-5>6-3-----------------------------------------|
00-----00-----00--------------------------------------------------------|


---------------------------------------------------------------------------|
---------------------------------------------------------------------------|
---------------------------------------------------------------------------|
-------------------565-5---------------------------------------------------|
--3-5-6--3-5-6-0------8-865------------------------------------------------|
00-----00------0-----------------------------------------------------------|


(both guitars)
-------------------------------------------------------------------------|
-------------------------------------------------------------------------|
-------------------------------------------------------------------------|
----------------------------------------------565-6----------------------|
--3-5-6--3-5-6--3-4-5-8-6-5>6-3--3-5-6--3-5-6----8-865---65--------------|
00-----00-----00---------------00-----00--------------865--865-----------|
                    2x

----------------------------------------------------------------------|
----------------------------------------------------------------------|
----------------------------------------------------------------------|
----------------------------------------------------------------------|
--3>5 3>5--3>5 3>5--3>5--3>5 3>5 3>5-66-55----------------------------|
00-------00-------00---00------------66-55----------------------------|
                           4x


-----------------------------------------------------------------------|
-----------------------------------------------------------------------|
-----------------------------------------------------------------------|
-----------------------------------------------------------------------|
000-000-1-000-000-3-000-1-000-000-1-000-5553331113---------------------|
000-000-1-000-000-3-000-1-000-000-1-000--------------------------------|
                                4x


------------------------------------------------------------------------|
------------------------------------------------------------------------|
------------------------------------------------------------------------|
------------------------------------------------------------------------|
000-000-5>6>5--000-000-5>6>5--000-000-5>6>5-8886665553------------------|
000-000------8-000-000------6-000-000------8----------------------------|
                        4x


(break down)*


--------------------------------------------------------------------------|
--------------------------------------------------------------------------|
--------------------------------------------------------------------------|
--------------------------------------------------------------------------|
---5>7-7>8-8>10-10>12-8>10-7>8-5---5>7-7>8-8>10-8-7-5-7-5-3---------------|
000---0---0----0-----0----0---0-000---0---0-----8-7-5-7-5-3---------------|
                        8x


----------------------------------------------------------------------|
----------------------------------------------------------------------|
----------------------------------------------------------------------|
----------------------------------------------------------------------|
1111111111111111111111111-000-----------------------------------------|
1111111111111111111111111-000-----------------------------------------|


(bass part)

-------------------------------------------------------------------|
-------------------------------------------------------------------|
-------------------------------------------------------------------|
-------------------------------------------------------------------|
---5>7-7>8------7>8>7---7>8>7--------------------------------------|
000---0---101010-----888-----1087----------------------------------|
                           6x
Добавлено: 21.01.2014
Другие материалы по этой песне:
  • Аккорды и текст

Страница создана 21.01.2014
http://primanota.ru/misc-unsigned-bands/audio-epica-its-not-crazy-talk-im-just-expressing-myself-chords.htm
Привет, Гость.
Предлагаем пройти революционный курс по гитаре.
Подарок от PrimaNota.Ru, забирай!