PrimaNota.ru - самый крупный в мире бесплатный архив песенных текстов, аккордов, табулатур и нот


Misc Unsigned Bands - Antagonist - Hollywood - таба

Регистрация Запомнить меня
Войти через:  Facebook Google Twitter Vk Yandex Mail.ru

Misc Unsigned Bands - Antagonist - Hollywood - таба

Печатать
Просмотров: 70
Hollywood by Antagonist

Easy song, so much fun.

Drop C

Intro 0:00 - 0:04 
|-------------------------|
|-------------------------|
|-------------------------|
|--0~---------------6--3--|
|--0~---------------6--3--|
|--0~---------------6--3--|


Verse 0:04 - 0:31
|-------------------------------------------------------------------|
|-------------------------------------------------------------------|
|-------------------------------------------------------------------|
|-----------------------------------------------------777-----------|
|------5---5-----------5---5-----------5---8---7---888---101010777--|
|--000---0---0-000-000---0---0-000-000---0---0---0------------------|
PM ...   .   . ... ...   .   . ... ...   .   .   .

|--------------------------------------------------------------------------|
|--------------------------------------------------------------------------|
|--------------------------------------------------------------------------|
|--------------------------------------------------------------------------|
|------8---8-----------8---7---5---5h7-----777888101010------101010888777--|
|--555---5---5-555-555---5---5---5------888------------101010--------------|
PM ...   .   . ... ...   .   .   .      

Chorus Pt1 0:31 - 0:50
Guitar One
|---------------------------------------------------------------------------|
|---------------------------------------------------------------------------|
|----------------------------777777779999101010-----------------------------|
|--000000000000-333333333333------------------------------------------------|
|--000000000000-333333333333-5555555577778-8-8--8---7----5h7---8---7---5h7--|
|--000000000000-333333333333----------------------0---00-----0---0---0------|
PM                                                .   ..     .   .   .

Guitar Two
|----------------------------------------------------------------------|
|----------------------------------------------------------------------|
|----------------------------------------------------------------------|
|--000000000000-333333333333-555555555555------------------------------|
|--000000000000-333333333333-555555555555--8---7----5h7---8---7---5h7--|
|--000000000000-333333333333-555555555555----0---00-----0---0---0------|
PM                                           .   ..     .   .   .

Chorus Pt2 0:50 - 1:09
|-----------------------------------------------------------------|
|-----------------------------------------------------------------|
|-----------------------------------------------------------------|
|-----------------------------------------------10-----10-----10--|
|--0---5---3h5---0---5---3h5---0---5---3h5--7h8----7h8----7h8-----|
|--0-0---0-----0-0-0---0-----0-0-0---0----------------------------|
PM   .   .     .   .   .     .   .   .

|------------------------------|
|------------------------------|
|------------------------------|
|--888888888888-555555-333333--|
|--888888888888-555555-333333--|
|--888888888888-555555-333333--|

Verse 1:09 - 1:36

Chorus Pt1 1:36 - 1:54

Chorus Pt2 1:54 - 2:12

Middle Part 2:12 - 2:30
Guitar One
|------------------------|
|------------------------|
|--10~-9~--10~-14~--12~--|
|------------------------|
|--8~--7~--8~--12~--10~--|
|------------------------|

Guitar Two
|----------------------|
|----------------------|
|--7~--5~--3~--10~-9~--|
|----------------------|
|--5~--3~--1~--8~--7~--|
|----------------------|

Outro 2:30 - 3:14
Guitar One
|--------------------------------------------------------------------------|
|--------------------------------------------------------------------------|
|--10----------10-9----------9--10----------10--/141414141414121212121212--|
|--------------------------------------------------------------------------|
|--8-----------8--7----------7--8-----------8---/121212121212101010101010--|
|----0-0-0-0-0-----0-0-0-0-0-----0-0-0-0-0---------------------------------|
PM   . . . . .     . . . . .     . . . . .

Guitar Two
|-------------------------------------------------------------------|
|-------------------------------------------------------------------|
|--7-----------7--5----------5--3-----------3--/101010101010999999--|
|-------------------------------------------------------------------|
|--5-----------5--3----------3--1-----------1--/8-8-8-8-8-8-777777--|
|----0-0-0-0-0-----0-0-0-0-0-----0-0-0-0-0--------------------------|
PM   . . . . .     . . . . .     . . . . .


End
Добавлено: 01.10.2013
Другие материалы по этой песне:
  • Аккорды и текст

Страница создана 01.10.2013
http://primanota.ru/misc-unsigned-bands/antagonist-hollywood-chords.htm
Привет, Гость.
Предлагаем пройти революционный курс по гитаре.
Подарок от PrimaNota.Ru, забирай!