PrimaNota.ru - самый крупный в мире бесплатный архив песенных текстов, аккордов, табулатур и нот


Misc Unsigned Bands - Anssi Tikanmäki - Aamu Lakeuksilla - аккорды и текст, таба

Регистрация Запомнить меня
Войти через:  Facebook Google Twitter Vk Yandex Mail.ru

Misc Unsigned Bands - Anssi Tikanmäki - Aamu Lakeuksilla - аккорды и текст, таба

Печатать
Просмотров: 217
Уроки эстрадного вокала в Санкт-Петербурге
Anssi Tikanmäki - Aamu Lakeuksilla
Misc Unsigned Bands
-------------------------------------------------------------------------------
        Aamu lakeuksilla (Acoustic) - Anssi Tikanmäki
-------------------------------------------------------------------------------

Tabbed by: SebuPeba
E-mail: severi377@gmail.com

Tuning: Standard
 
Intro (played in the back for the whole time of the song):

e|---------------------------------------------------------------------------|
B|---------------------------------------------------------------------------|
G|---------------------------------------------------------------------------|
D|-----3---------------------------------------------------------------------|
A|--5-----7------------------------------------------------------------------|
E|---------------------------------------------------------------------------|


Part 1:

e|---------------------------------------------------------------------------|
B|---------------------------------------------------------------------------|
G|---------------------------------------------------------------------------|
D|-------7-6-7-7-6-7-------------3-2-3-5-------------------------------------|
A|-5-4-5-------------7-----5-4-5---------------------------------------------|
E|---------------------------------------------------------------------------|

e|---------------------------------------------------------------------------|
B|---------------------------------------------------------------------------|
G|---------------------------------------------------------------------------|
D|-7-6-7-7-6-7-7-5-3-0-----------2-0-----------------------------------------|
A|-------------------------3-2-3-----3-5-------------------------------------|
E|---------------------------------------------------------------------------|


Now again but little higher:

e|---------------------------------------------------------------------------|
B|---------------------------------------------------------------------------|
G|-------7-6-7-7-6-7-------------3-2-3-5-------------------------------------|
D|-5-4-5-------------7-----5-4-5---------------------------------------------|
A|---------------------------------------------------------------------------|
E|---------------------------------------------------------------------------|

e|---------------------------------------------------------------------------|
B|---------------------------------------------------------------------------|
D|-7-6-7-7-6-7-7-5-3-0-----------2-0-----------------------------------------|
A|-------------------------3-2-3-----3-5-------------------------------------|
E|---------------------------------------------------------------------------|
E|---------------------------------------------------------------------------|


Part 2:

e|---------------------------------------------------------------------------|
B|---------------------------------------------------------------------------|
G|---------------------------------------------------------------------------|
D|-12-11-12-10-9-10-7-----9--9-7-5-7-5-3-5-----------------------------------|
A|----------------------------------------7-9--------------------------------|
E|---------------------------------------------------------------------------|

e|---------------------------------------------------------------------------|
B|---------------------------------------------------------------------------|
G|---------------------------------------------------------------------------|
D|-12-11-12-10-9-10-7-----9--9-7-5-7-5-3-9---11-9-7-12--12--12---------------|
A|---------------------------------------------------------------------------|
E|---------------------------------------------------------------------------|


Parts 1 and 2 again:

e|---------------------------------------------------------------------------|
B|---------------------------------------------------------------------------|
G|-------7-6-7-7-6-7-------------3-2-3-5-------------------------------------|
D|-5-4-5-------------7-----5-4-5---------------------------------------------|
A|---------------------------------------------------------------------------|
E|---------------------------------------------------------------------------|

e|---------------------------------------------------------------------------|
B|---------------------------------------------------------------------------|
D|-7-6-7-7-6-7-7-5-3-0-----------2-0-----------------------------------------|
A|-------------------------3-2-3-----3-5-------------------------------------|
E|---------------------------------------------------------------------------|
E|---------------------------------------------------------------------------|


e|---------------------------------------------------------------------------|
B|---------------------------------------------------------------------------|
G|---------------------------------------------------------------------------|
D|-12-11-12-10-9-10-7-----9--9-7-5-7-5-3-5-----------------------------------|
A|----------------------------------------7-9--------------------------------|
E|---------------------------------------------------------------------------|

e|---------------------------------------------------------------------------|
B|---------------------------------------------------------------------------|
G|---------------------------------------------------------------------------|
D|-12-11-12-10-9-10-7-----9--9-7-5-7-5-3-9---11-9-7-12--12--12---------------|
A|---------------------------------------------------------------------------|
E|---------------------------------------------------------------------------|


Part 3:

e|---------------------------------------------------------------------------|
B|---------------------------------------------------------------------------|
G|---------------------------------------------------------------------------|
D|-12--11--9-7-5-7-4-6-4-2-----12--16--12-11-9-7-9-5-7-5-3-------------------|
A|---------------------------------------------------------------------------|
E|---------------------------------------------------------------------------|


Part 1 twice:

e|---------------------------------------------------------------------------|
B|---------------------------------------------------------------------------|
G|-------7-6-7-7-6-7-------------3-2-3-5-------------------------------------|
D|-5-4-5-------------7-----5-4-5---------------------------------------------|
A|---------------------------------------------------------------------------|
E|---------------------------------------------------------------------------|

e|---------------------------------------------------------------------------|
B|---------------------------------------------------------------------------|
D|-7-6-7-7-6-7-7-5-3-0-----------2-0-----------------------------------------|
A|-------------------------3-2-3-----3-5-------------------------------------|
E|---------------------------------------------------------------------------|
E|---------------------------------------------------------------------------|


e|---------------------------------------------------------------------------|
B|---------------------------------------------------------------------------|
G|-------7-6-7-7-6-7-------------3-2-3-5-------------------------------------|
D|-5-4-5-------------7-----5-4-5---------------------------------------------|
A|---------------------------------------------------------------------------|
E|---------------------------------------------------------------------------|

e|---------------------------------------------------------------------------|
B|---------------------------------------------------------------------------|
D|-7-6-7-7-6-7-7-5-3-0-----------2-0-----------------------------------------|
A|-------------------------3-2-3-----3-5-------------------------------------|
E|---------------------------------------------------------------------------|
E|---------------------------------------------------------------------------|


Part 4 (song ends here):

e|---------------------------------------------------------------------------|
B|---------------------------------------------------------------------------|
G|---------------------------------------------------------------------------|
D|---------------------------------------------------------------------------|
A|-7-5-3-9-7-5-7-------------------------------------------------------------|
E|---------------------------------------------------------------------------|
Добавлено: 27.09.2014
Другие материалы по этой песне:
  • Аккорды и текст

Страница создана 27.09.2014
http://primanota.ru/misc-unsigned-bands/anssi-tikanmaki-aamu-lakeuksilla-chords.htm
Привет, Гость.
Предлагаем пройти революционный курс по гитаре.
Подарок от PrimaNota.Ru, забирай!