PrimaNota.ru - самый крупный в мире бесплатный архив песенных текстов, аккордов, табулатур и нот


Misc Unsigned Bands - And The Boys - Matts Song Feat Mikey - таба, видео

Регистрация Запомнить меня
Войти через:  Facebook Google Twitter Vk Yandex Mail.ru

Misc Unsigned Bands - And The Boys - Matts Song Feat Mikey - таба, видео

Печатать
Просмотров: 26
-------------------------------------------------------------------------------
                Matt's Song (feat. Mikey) - _ and the Boys
-------------------------------------------------------------------------------
Tabbed by: mgkidd
E-mail: mgregor7@hotmail.com

Tuning: Guitar 1 - Standard


Guitar 1 - Intro/Verse

e|-----------------------------------|    |-------------------------------------|
B|------3-------7-------8-------8----|    |------5-------7--------3-------------|
G|----0---0---0---0---0---0---0---0--|    |----0---0---0---0----0---0-----------|
D|-----------------------------------| x3 |-------------------------------------|
A|-----------------------------------|    |-------------------------------------|
E|--3-------7-------8-------8--------|    |--5-------7--------3-------3-(Hold)--|


Guitar 1 - Chorus

e|---------------------------------------------------------------------------|
B|---------------------------------------------------------------------------|
G|------------------5-5555-55-5555-----------------5-5555/9999\7-------------|
D|--5-555/9-99-9999-5-5555-55-5555-5-555/9-99-9999-5-5555/9999\7-------------|
A|--5-555/9-99-9999-3-3333-33-3333-5-555/9-99-9999-3-3333/7777\5-------------|
E|--3-333/7-77-7777----------------3-333/7-77-7777---------------------------|

e|----------------------------------------------------------------|
B|----------------------------------------------------------------|
G|------------------5-555-2-22-2222-----------------5-------------|
D|--5-555/9-99-9999-5-555-2-22-2222-5-555/9-99-9999-5-9-5---------|
A|--5-555/9-99-9999-3-333-0-00-0000-5-555/9-99-9999-3-9-5---------|
E|--3-333/7-77-7777-----------------3-333/7-77-7777---7-3---------|

Guitar 1 - Bridge
e|---------------------------------------------------------------------------|
B|---------------------------------------------------------------------------|
G|--9-9-9-9-8-8-8-8-7-7-7-7-6-6-6-6-9-9-9-9-8-8-8-8-7-7-7-7-6-6-6-6----------|
D|--9-9-9-9-8-8-8-8-7-7-7-7-6-6-6-6-9-9-9-9-8-8-8-8-7-7-7-7-6-6-6-6----------|
A|--7-7-7-7-6-6-6-6-5-5-5-5-4-4-4-4-7-7-7-7-6-6-6-6-5-5-5-5-4-4-4-4----------|
E|---------------------------------------------------------------------------|

e|---------------------------------------------------------------------------|
B|---------------------------------------------------------------------------|
G|--9-9-9-9-11-11-11-11-12-12-12-12-14-14-14-14-16---------------------------|
D|--9-9-9-9-11-11-11-11-12-12-12-12-14-14-14-14-16-(Play last note 16 times)-|
A|--7-7-7-7-9--9--9--9--10-10-10-10-12-12-12-12-14---------------------------|
E|---------------------------------------------------------------------------|

Guitar 1 - Solo

             Solo 1
e|---------------------------------------------------|
B|---------------------------------------------------|
G|--------------------------------------14-14-12-12--|
D|--------------14-14-14-14-15-15-15-15--------------|
A|--15-15-15-15--------------------------------------|
E|---------------------------------------------------|

e|---------------------------------------------------|
B|---------------------------------------------------|
G|--------------------------------------14-16-17-----|
D|--------------14-14-14-14-15-15-15-15--------------|
A|--15-15-15-15--------------------------------------|
E|---------------------------------------------------|

                Solo 2
e|--------------------------------------|    |--------------|
B|--20-20-20-20-18-18-18-18-17-17-17-17-|    |-15-15-15-15--|
G|--------------------------------------|    |--------------| 
D|--------------------------------------|    |--------------| 1st Ending
A|--------------------------------------|    |--------------|
E|--------------------------------------|    |--------------|

e|----------------|
B|--15-13-12-15~~~|
G|----------------| 
D|----------------| 2nd Ending
A|----------------|
E|----------------|

Guitar 1 - Outro

e|---------------------------------------------------------------------------|
B|---------------------------------------------------------------------------|
G|------------------5-5555-55-5555-----------------5-5555/9999\7-------------|
D|--5-555/9-99-9999-5-5555-55-5555-5-555/9-99-9999-5-5555/9999\7-------------|
A|--5-555/9-99-9999-3-3333-33-3333-5-555/9-99-9999-3-3333/7777\5-------------|
E|--3-333/7-77-7777----------------3-333/7-77-7777---------------------------|

e|----------------------------------------------------------------|
B|----------------------------------------------------------------|
G|------------------5-555-2-22-2222-----------------5-------------|
D|--5-555/9-99-9999-5-555-2-22-2222-5-555/9-99-9999-5-9-5---------|
A|--5-555/9-99-9999-3-333-0-00-0000-5-555/9-99-9999-3-9-5---------|
E|--3-333/7-77-7777-----------------3-333/7-77-7777---7-3---------|

Song Order:

Intro/Verse x2
*Pick Slide into Chorus*
Chorus      x1
Intro/Verse x1
Chorus      x2
Bridge      x1
Chorus      x1
Solo        x1
(Solo 1)
(Solo 2)
(1st Ending)
(Solo 2)
(2nd Ending)
Intro/Verse x1
Chorus      x1
Outro       x1

************************************

| /   slide up
| \   slide down
| h   hammer-on
| p   pull-off
| ~   vibrato
| +   harmonic
| x   Mute note
| b   Bend
| pb  Pre-bend
| br  Bend release
| pbr Pre-bend release
| brb Bend release bend

************************************
Добавлено: 18.04.2016
Другие материалы по этой песне:
  • Аккорды и текст

Страница создана 18.04.2016
http://primanota.ru/misc-unsigned-bands/and-boys-matts-song-feat-mikey-chords.htm
Привет, Гость.
Предлагаем пройти революционный курс по гитаре.
Подарок от PrimaNota.Ru, забирай!