PrimaNota.ru - самый крупный в мире бесплатный архив песенных текстов, аккордов, табулатур и нот


Misc Unsigned Bands - Akash Rajbanshi - Yehi Nai Hola - аккорды и текст

Регистрация Запомнить меня
Войти через:  Facebook Google Twitter Vk Yandex Mail.ru

Misc Unsigned Bands - Akash Rajbanshi - Yehi Nai Hola - аккорды и текст

Печатать
Просмотров: 62
Akash Rajbanshi - Yehi Nai Hola
Misc Unsigned Bands
Verse I
E7M     C#m9
Timilai harek din dhekda
F#m11         Badd11
Mero maan ko dhukdhuki jhan badcha
E7M            C#m9
Timro maya ko gahirai ma dubdha
F#m11         Badd11
Mero kalpana affai harauna khojcha

Pre-Chorus
G#m7b6   F#7sus4add9 C#m9 Bsus4add9
Timi ma kina ho aja bholi
G#m7b6   F#7sus4add9 C#m9 Bsus4add9 Bsus4
Sayad yehi nai hola chokho maya

Chorus
E7M                     C#m9
Timilai nai sochdaichu ma yaha
B6add11               G#m7b6
Ani hamro maya ko barema
E7M                     C#m9
Thaha chaina k hola bholi yaha
E6                    C#m9       Bsus4
Tara sochirahanechu timro barema

Verse II
E7M     C#m9
Mero chahana timi prati dherai
F#m11         Badd11
Yekkashi kina baljhiyeko cha
E7M            C#m9
Thahai napai timro mitho muskan ko
F#m11         Badd11
Yaad ma yo maan aljhiyeko cha

Pre-Chorus
Chorus

Bridge
C7M    Dsus2add13 E7M   %
Timro barema
C7M    Dsus2add13 
Sayad yehi nai hola
E7M      %
chokho maya
C7M    Dsus2add13 E7M   %
Mero yaad ma kina hola
C7M   Bsus4add9 C7Madd11/Bb   Asus2
Timi nai Timi

Chorus



Intro and Verses Chords                                           
     E7M                        C#m9                 F#m11             
     W                          W                    W                 
E||--0-----------------------|--0----------------|---0----------------|
B||--0-----------------------|--0----------------|---0----------------|
G||--8-----------------------|--8----------------|--13----------------|
D||--9-----------------------|--9----------------|--14----------------|
A||--7-----------------------|--7----------------|--12----------------|
E||--0-----------------------|--9----------------|--14----------------|


                      Pre Chorus Chords                      
  Badd11              B7sus4/G#            Eadd11/F#         
  W                   W                    W                 
--0----------------|--0-----------------|--0----------------|
--0----------------|--0-----------------|--0----------------|
--8----------------|--4-----------------|--1----------------|
--9----------------|--4-----------------|--2----------------|
--9----------------|--0-----------------|--0----------------|
--7----------------|--4-----------------|--2----------------|


  C#m9                Bsus4add9           B7sus4/G#           Eadd11/F#         
  W                   W                   W                   W                 
--0----------------|--0----------------|--0----------------|--0----------------|
--0----------------|--0----------------|--0----------------|--0----------------|
--8----------------|--6----------------|--4----------------|--1----------------|
--6----------------|--4----------------|--4----------------|--2----------------|
--4----------------|--2----------------|--0----------------|--0----------------|
--0----------------|--0----------------|--4----------------|--2----------------|


                                            Chorus Chords     
  C#m9                Bsus4add9 Bsus4       E7M               
  W                   H         H           W                 
--0----------------|--0---------0--------|--0----------------|
--0----------------|--0---------0--------|--0----------------|
--8----------------|--6---------4--------|--8----------------|
--6----------------|--4---------4--------|--9----------------|
--4----------------|--2---------2--------|--7----------------|
--0----------------|--0---------0--------|--0----------------|


  C#m9                E7Madd11            B7sus4/G#           E7M               
  W                   W                   W                   W                 
--0----------------|--0----------------|--0----------------|--0----------------|
--0----------------|--0----------------|--0----------------|--0----------------|
--8----------------|--8----------------|--4----------------|--8----------------|
--9----------------|--6----------------|--4----------------|--9----------------|
--7----------------|--0----------------|--0----------------|--7----------------|
--9----------------|--7----------------|--4----------------|--0----------------|


  C#m9                Eadd11              Bsus4add9 Bsus4     
  W                   W                   H         H         
--0----------------|--0----------------|--0---------0--------|
--0----------------|--0----------------|--0---------0--------|
--8----------------|--1----------------|--6---------4--------|
--9----------------|--2----------------|--4---------4--------|
--7----------------|--0----------------|--2---------2--------|
--9----------------|--4----------------|--0---------0--------|


    Bridge Chords                                             
    C7M                Dsus2add13          E7M               
    W                   W                   W                 
|---0----------------|--0----------------|--0----------------|
|---0----------------|--0----------------|--0----------------|
|*--7----------------|--9----------------|--8----------------|
|*--5----------------|--7----------------|--9----------------|
|---3----------------|--5----------------|--7----------------|
|---0----------------|--0----------------|--0----------------|


  E7M                   C7M                Bsus4add9         
  W                 3x  W                   W                 
--0-----------------||--0----------------|--0----------------|
--0-----------------||--0----------------|--0----------------|
--8----------------*||--7----------------|--6----------------|
--9----------------*||--5----------------|--4----------------|
--7-----------------||--3----------------|--2----------------|
--0-----------------||--0----------------|--0----------------|


  E13-/9-/11+         Esus4              
  W                   W                  
--0----------------|--0----------------||
--0----------------|--0----------------||
--5----------------|--4----------------||
--3----------------|--2----------------||
--1----------------|--0----------------||
--0----------------|--0----------------||
Добавлено: 10.07.2015
Другие материалы по этой песне:
  • Аккорды и текст

Страница создана 10.07.2015
http://primanota.ru/misc-unsigned-bands/akash-rajbanshi-yehi-nai-hola-chords.htm
Привет, Гость.
Предлагаем пройти революционный курс по гитаре.
Подарок от PrimaNota.Ru, забирай!