PrimaNota.ru - самый крупный в мире бесплатный архив песенных текстов, аккордов, табулатур и нот


Misc Unsigned Bands - Acid Inc - Its Ok - аккорды и текст

Регистрация Запомнить меня
Войти через:  Facebook Google Twitter Vk Yandex Mail.ru

Misc Unsigned Bands - Acid Inc - Its Ok - аккорды и текст

Печатать
Просмотров: 70
Acid Inc - Its Ok
Misc Unsigned Bands
Author/Artist: Acid Inc.   http://www.acidinc.moonfruit.com/
Title: It's Ok
Transcribed by: Andrew Biles & Chris (mosher49)

The rythm part just seems to play this throughout the whole song

|-7-7-7-7-7-7-7--3-3-3-3-3-3-3--3-3-3-3-3-3-3--3-3-3--2-2-2-2-
|-8-8-8-8-8-8-8--3-3-3-3-3-3-3--5-5-5-5-5-5-5--3-3-3--2-2-2-2-
|-9-9-9-9-9-9-9--4-4-4-4-4-4-4--5-5-5-5-5-5-5--4-4-4--3-3-3-3-
|-9-9-9-9-9-9-9--5-5-5-5-5-5-5--5-5-5-5-5-5-5--5-5-5--4-4-4-4-
|-7-7-7-7-7-7-7--5-5-5-5-5-5-5--3-3-3-3-3-3-3--5-5-5--4-4-4-4-
|----------------3-3-3-3-3-3-3-----------------3-3-3--2-2-2-2-
                         
Lead Part
|----------------------------------------------------
|-8-8-8h10-8-------8---------------------------------
|------------9-7-9---9-7-7-7-5-5-5-7-5---------------
|--------------------------------------7-5-5-5-4-4-4-
|----------------------------------------------------
|----------------------------------------------------
                                                                          
Lead may play something else over the chorus but I'm not gonna bother
to figure that out if it does.
then there's the solo
|------------------------------------------------------------------------------
|-8-8-8h10-8-------------------------------------8-8-8h10-8--------------------
|------------9-7-9^-7-7-7-5-5-5-7-5-4-4-4-3-3-3-------------9-7-9^-7-7-7-9-11--
|------------------------------------------------------------------------------
|------------------------------------------------------------------------------
|------------------------------------------------------------------------------
                                                                        
----------------------------------------15-15-15------------------------------
----------------------15-17-17-15-17-17----------/17-15-15--------------------
-12-14-12-14-16-16-16--------------------------------------16-16-16-17-17-17--
------------------------------------------------------------------------------
------------------------------------------------------------------------------
------------------------------------------------------------------------------
                                                                              
------------------------------------------------------------------------------
-15-------------------8-8-8h10-8------------------5h8-5h8-5h8-5h8-5h8-5h8-----
----16-16-16-15-15-15------------9-7-9^-7-7-7-5h7-----------------------------
------------------------------------------------------------------------------
------------------------------------------------------------------------------
------------------------------------------------------------------------------
                                                                              
---------------------|
-5h8-5h8-5h8-5h8-5h8-|
---------------------|
---------------------|
---------------------|
---------------------|

That seems to be all of the song, so any1 that somehow has heard of them, enjoy
Добавлено: 02.08.2013
Другие материалы по этой песне:
  • Аккорды и текст

Страница создана 02.08.2013
http://primanota.ru/misc-unsigned-bands/acid-inc-its-ok-chords.htm
Привет, Гость.
Предлагаем пройти революционный курс по гитаре.
Подарок от PrimaNota.Ru, забирай!