PrimaNota.ru - самый крупный в мире бесплатный архив песенных текстов, аккордов, табулатур и нот


Misc Unsigned Bands - A Vain Attempt - I Swa Her Face - таба

Регистрация Запомнить меня
Войти через:  Facebook Google Twitter Vk Yandex Mail.ru

Misc Unsigned Bands - A Vain Attempt - I Swa Her Face - таба

Печатать
Просмотров: 60
 -----------------------------------------------------------------------

I Saw Her Face- A Vain Attempt
------------------------------------------------------------------------|


Tabbed: Langchoi29
Email: Choi_29a@yahoo.com

Tuning: standard
The best of all post hardcore band I ever known...Love it!!!
I did not show the strumming, so just listen to the song and figure it out...HARDLY 
TO MY ONE AND ONLY BLUE!!!Trust me ..k?!


Starts w/ the piano. Guitar 1 comes at 0:13

(1st part)


Guitar 1 no distortion                I think this is the right one!
e|-------------------------------|   e|-------------------------------|
B|--1--1--1--1-------------------|   B|--3-----1--3-------------------|
G|-----2--2----------------------|   G|--5--5--2--4-------------------|
D|--2--2--3----------------------|OR D|--5--7--3--5-------------------|
A|--3--------2-------------------|   A|--3--7--3--5-------------------|
E|-----------3-------------------|   E|-----5--1--3-------------------|

Guitar 2 (last part, w/ the piano) no distortion
e|--------------------------------------------------------------------|
B|-------------------------------10~-10-8~----------------------------|
G|--9-7-5--9-7-5--9-7-5--9-7-5\---------------------------------------|
D|--------------------------------------------------------------------|
A|--------------------------------------------------------------------|
E|--------------------------------------------------------------------|


(2nd part)


Guitar 1 & 2 distorted
e|--------------|
B|--------------|
G|--------------|
D|--3--5--7-----|repeat 4x
A|--3--5--7-----|
E|--1--3--5-----|

Guitar 2 (starts in 
Добавлено: 14.09.2013
Другие материалы по этой песне:
  • Аккорды и текст

Страница создана 14.09.2013
http://primanota.ru/misc-unsigned-bands/a-vain-attempt-i-swa-her-face-chords.htm
Привет, Гость.
Предлагаем пройти революционный курс по гитаре.
Подарок от PrimaNota.Ru, забирай!