PrimaNota.ru - самый крупный в мире бесплатный архив песенных текстов, аккордов, табулатур и нот


Misc Unsigned Bands - 2020 Vision - Haggis - таба

Регистрация Запомнить меня
Войти через:  Facebook Google Twitter Vk Yandex Mail.ru

Misc Unsigned Bands - 2020 Vision - Haggis - таба

Печатать
Просмотров: 99
Уроки эстрадного вокала в Санкт-Петербурге
2020 Vision - Haggis
e|--------------------------------------------------------------|
B|--------------------------------------------------------------|
G|------4b6-------2h3p1----7--4---3-----------------------------|
D|--6----------3-----------5--2---1---5-4--------2--------------|
A|--4----------3----------------------3-2-0------0--------------|
E|--4----------1-----------------------------3-2-0--------------|
Verse:   
e|--3----2------------------------------------------------------|
B|--3----3------------------------------------------------------|
G|--0----2----------------------------------7-5-----------------|
D|--2----------------------------------3-0------7---------------|
A|--3----------------------------------3-0--------6-------------|
E|--3----------------------------------2-2----------5-----------|
  
e|-----------------------------------------------2-0------------|
B|-------------1----------------0----------------2-0------------|
G|-2-----------0----------------x----------------------9-7------|
D|-2-----------2----------------2----------------------9-7-9----|
A|-0-----------3----------------2--------------------------9-7-0|
E|------------------------------0----------------------------7-0|

e|--------------------------------------------------------------|
B|--------------------------------------------------------------|
G|---------------3---5--------7--------------------0h2h3p0------|
D|-3-----5-------3---5---5----7----------------------------3p1b2|
A|-3-----5-------1---3---5----5---------------------------------|
E|-0-----3---------------3--------------------------------------|
      
e|---------------------------------------------7-4--------------|
B|---------------------------------------------x-x--------------|
G|--------------------------------7-5-3-0------x-x--------------|
D|--------------------------------7-5-3-0-3-2--x-x--------------|
A|----------------------------------------3-2--x-x--------------|
E|--0-000-0-000-2-222-2-222-2-222--------------7-4--------------|

e|--------------------------------------------4~----------------|
B|--------------------------------------------5~----------------|
G|-----------3--4--5--2--7--2--2-1-0----------6~----------------|
D|--2-2-1-1--2--2--3--4--3--5--------4-3-2-1
Добавлено: 13.11.2013
Другие материалы по этой песне:
  • Аккорды и текст

Страница создана 13.11.2013
http://primanota.ru/misc-unsigned-bands/2020-vision-haggis-chords.htm
Привет, Гость.
Предлагаем пройти революционный курс по гитаре.
Подарок от PrimaNota.Ru, забирай!