PrimaNota.ru - самый крупный в мире бесплатный архив песенных текстов, аккордов, табулатур и нот


Misc Traditional - Suojelusenkeli Maan Korvessa Kulkevi Lapsosen Tie - таба

Регистрация Запомнить меня
Войти через:  Facebook Google Twitter Vk Yandex Mail.ru

Misc Traditional - Suojelusenkeli Maan Korvessa Kulkevi Lapsosen Tie - таба

Печатать
Просмотров: 39
Time signature: 3/4


|---|-0-----0----3-----|-7--------3--0-------|-2-----2--0--2--3---|-0-----------2----|
|-0-|----0-----0----0--|----0-----------0----|--------------------|----------0-------|
|---|------------------|-------0-------------|----2---------------|-------0----------|
|---|------------------|---------------------|--------------------|----2-------------|
|---|------------------|---------------------|-2------------------|------------------|
|---|-0----------------|-0-------------------|--------------------|-0----------------|

    |-3-----3-----7----|-10-----10-----12----|-10-----10--8--7--8-|-7-----------3--5-|
    |------------------|---------------------|--------------------|----------0-------|
    |----0-----0-----0-|-----0------0--------|-----7--------------|-------0----------|
    |------------------|---------------------|-0------------------|----0-------------|
    |------------------|-10------------------|--------------------|------------------|
    |-3-----------7----|---------------------|--------------------|-3----------------|

    |-7-----7-----8----|-5-----5-----7-------|-3-----3--7--5--3--|-2-----------7-----|
    |----0-----0-----0-|----5-----5-----5----|-------------------|-------0-----------|
    |------------------|---------------------|----0--------------|----2-----2--------|
    |------------------|---------------------|-------------------|-------------------|
    |------------------|-0-------------------|-------------------|-2-----------------|
    |-0----------------|---------------------|-0-----------------|-------------------|

    |-------------7----|-12---10-------------|-------------------|-7-----------7-----|
    |-5-----8----------|----------13--12--10-|-8------8-----10---|-------7-----------|
    |----0-----0-----0-|---------------------|-----0-----0-----0-|----8-----8--------|
    |------------------|---------------------|-------------------|-------------------|
    |------------------|-0-------------------|-10----------------|-------------------|
    |-0----------------|---------------------|-------------------|-7-----------------|

    |-------------7----|-12---10-------------|-------------------|--0----------------|
    |-5-----8----------|----------13--12--10-|-8------8--10--7---|--0----------------|
    |----0-----0-----0-|---------------------|-----0-------------|--0----------------|
    |------------------|---------------------|-------------------|-------------------|
    |------------------|-0-------------------|-10------------0---|-------------------|
    |-0----------------|---------------------|-------------------|--0----------------|

Enjoy!
Corrections and comments to: lhteenmkit@gmail.com
Добавлено: 03.05.2016
Другие материалы по этой песне:
  • Аккорды и текст

Страница создана 03.05.2016
http://primanota.ru/misc-traditional/suojelusenkeli-maan-korvessa-kulkevi-lapsosen-tie-chords.htm
Привет, Гость.
Предлагаем пройти революционный курс по гитаре.
Подарок от PrimaNota.Ru, забирай!