PrimaNota.ru - самый крупный в мире бесплатный архив песенных текстов, аккордов, табулатур и нот


Misc Traditional - Lough Erin Shore - таба, видео

Регистрация Запомнить меня
Войти через:  Facebook Google Twitter Vk Yandex Mail.ru

Misc Traditional - Lough Erin Shore - таба, видео

Печатать
Просмотров: 170
Уроки эстрадного вокала в Санкт-Петербурге
Irish Traditional
Title -lough Erin Shore
also used by the corrs on tracks like forgiven not forgotten

This song has essentially 3 parts and i added in an extra note in the later part to increase sound
 and difficulty

key N.H = natural harmonics, tr = trill

e|--------------------------------------------------------------------------|
B|---------------------------- n.h-7----------------------------------------|
G|-----------0-------- n.h-5------- ----------------------------------------|
D|--------0----------------------------n.h-5--------------------------------|
A|--------------------------------------------------------------------------|
E|-----8-----------7--------------------------------------------------------|


e|--------5---7--8---5------5---2--3--2----------------------0--------|
B|-----3-----------------3---------------3-----1----0--1--3-----3-----|
G|--------------------------------------------------------------------|
D|--------0-----------------0-----------------------------------0-----|
A|---------------------------------------------3----------2-----------|
E|--------------------------------------------------------------------|  

e|--------5---7-8-7--5------5---2--3--2----------------------0--------|
B|-----3-----------------3---------------3-----1----0--1--3-----3-----|
G|--------------------------------------------------------------------|
D|--------0-----------------0-----------------------------------0-----|
A|---------------------------------------------3----------2-----------|
E|--------------------------------------------------------------------|  


e|----10--7----------5----7-8---10---8--7---5----10---8--7--5---------------|
B|------------10--8--------------------------------------------8---------8--|
G|--------0---------------------------------0---------------------7--9------|
D|-------------------0------------------------------------------------------|
A|--------------------------------------------------------------------------|
E|------------------------------8---------------------8--------7---------8--|

e|----10--7----------5----7-8---10---8--7---5----10---8--7--5--------0-------|
B|------------10--8--------------------------------------------8--------1----|
G|--------0---------------------------------0---------------------7----------|
D|-------------------0-------------------------------------------------------|
A|----------------------------------------------------------------------3----|
E|------------------------------8---------------------8--------7-------------|


e|--------5---7--8---5------5---2--3--2-tr3----------------------0------|
B|-----3-----------------3--3------3---------3-----1----0--1--3-----3---|
G|--------7----------7----------------------------------------------2---|
D|--------0----------0------0------0--------------------------------0---|
A|-------------------------------------------------3----------2---------|
E|----------------------------------------------------------------------|  

e|--------5---7--8-7-5------5---2--3--2-tr3----------------------0------|
B|-----3-----------------3--3------3---------3-----1----0--1--3-----3---|
G|--------7----------7----------------------------------------------2---|
D|--------0----------0------0------0--------------------------------0---|
A|-------------------------------------------------3----------2---------|
E|----------------------------------------------------------------------|  

e|----10--7----------5----7-8---10---8--7---5----10---8--7--5---------------|
B|--------8---10--8--7----------------------7------------------8---------8--|
G|--------0---------------------0-----------0---------0--------0--7--9---0--|
D|-------------------0------------------------------------------------------|
A|--------------------------------------------------------------------------|
E|------------------------------8---------------------8--------7---------8--|

e|----10--7----------5----7-8---10---8--7---5----10---8--7--5--------0------|
B|--------8---10--8--7----------------------7------------------8---------1--|
G|--------0---------------------0-----------0---------0--------0--7------0--|
D|-------------------0------------------------------------------------------|
A|-----------------------------------------------------------------------3--|
E|------------------------------8---------------------8--------7------------|
Добавлено: 19.07.2015
Другие материалы по этой песне:
  • Аккорды и текст

Страница создана 19.07.2015
http://primanota.ru/misc-traditional/lough-erin-shore-chords.htm
Привет, Гость.
Предлагаем пройти революционный курс по гитаре.
Подарок от PrimaNota.Ru, забирай!