PrimaNota.ru - самый крупный в мире бесплатный архив песенных текстов, аккордов, табулатур и нот


Misc Traditional - Just In Time - таба, видео

Регистрация Запомнить меня
Войти через:  Facebook Google Twitter Vk Yandex Mail.ru

Misc Traditional - Just In Time - таба, видео

Печатать
Просмотров: 105
-------------------------------------------------------------------------------
                             Just In Time - Misc Traditional
-------------------------------------------------------------------------------
Tabbed by: ThorChicken
E-mail: privetawesome00@gmail.com

Tuning: Standard

Chords included in above
     C      Am     Dm7    G
e|------------------1--------------------------------------------------------|
B|-----1-----1------1-----0-0------------------------------------------------|
G|-----0-----0------2-----0-0------------------------------------------------|
D|-----2-----2----0-------0-0------------------------------------------------|
A|---3---2-0---4------------4------------------------------------------------|
E|--------------------4-3----------------------------------------------------|
D.S. C     Am      Dm  G7     C      Am
e|---------------------0--------------------------|
B|---1-------------3-----3----1-------------------|
G|-----0-2-2---------------------0-2-2------------|
D|------------1-0----------------------1----------|
A|---3-2---0------------------3--2---0------------|
E|-------------------4-3----3---------------------|
     Dm        G7   C         Am       G     C     Am   Dm    G7
e|-------------0-----------------------0-----------------1-------------------||
B|-------1-3-4------1----------------1---3---1-----1-----1-----0------------:||
G|-----2--------------0-2-2---------2--------------2-----2-----0-------------||
D|---0---0------------------1-0-2-3--------0-------2-1-0-------0-------------||{To Coda}
A|------------------3-2---0------------------3-2-0--------------------------:||
E|-----------3---3---------------------3-------------------4-3---3-----------||
    E7                  Am                   D7
e|---0-------0---------------------------------------------------------------|
B|---------------3-1-0---------1-----1-------3---------3------0--------------|
G|-----------------------2-----2-----2----------------------2----------------|
D|-----------2--0------------2-------2---2-1-0-------------------------------|
A|-------0-2-------3---2-0-3-----3-0---3-------------0---2--3---4------------|
E|---0-4---------------------------------------2-3-4-------------------------|
    G7
e|------3-0---0--------------------------------------------------------------|
B|----------3---3-0-------0--------------------------------------------------|
G|---0--------------0-2h3---3p2-0-2p0-------0--------------------------------|{D.S. al Coda}
D|---0--------------------------------2-1h2----------------------------------|
A|---------------------------------------------------------------------------|
E|---------------------------------------------------------------------------|
ø Coda |1.|               |2.|
     C     Am   Dm    G7         C                       C7
e|---------------1---------|-----5-------------------------------------------|
B|---1-----1-----1-----0---|-------4-3---------4\3-1-3-1---------------------|
G|---------2-1---2-----0---|---5-------5-0-2-0------------3------------------|
D|---------2---0-------0---|------------------------------2------------------|
A|---3-2-0---------------2-|---3--------------------------3------------------|
E|-----------------4-3-----|-------------------------------------------------|


| /   slide up
| \   slide down
| h   hammer-on
| p   pull-off

************************************
Thanks for playing!
************************************
Добавлено: 19.07.2015
Другие материалы по этой песне:
  • Аккорды и текст

Страница создана 19.07.2015
http://primanota.ru/misc-traditional/just-in-time-chords.htm
Привет, Гость.
Предлагаем пройти революционный курс по гитаре.
Подарок от PrimaNota.Ru, забирай!