PrimaNota.ru - самый крупный в мире бесплатный архив песенных текстов, аккордов, табулатур и нот


Misc Traditional - Hail Hail The Gangs All Here - аккорды и текст, видео

Регистрация Запомнить меня
Войти через:  Facebook Google Twitter Vk Yandex Mail.ru

Misc Traditional - Hail Hail The Gangs All Here - аккорды и текст, видео

Печатать
Просмотров: 168
Уроки эстрадного вокала в Санкт-Петербурге
Hail Hail The Gangs All Here
Misc Traditional
---------------------------------------------------------------------------
            Hail, Hail, the Gang's All Here
---------------------------------------------------------------------------
Tabbed by: maguri
Tuning: Standard


 Hail, Hail, the Gang's All Here


https://www.youtube.com/watch?v=lvDDMHwJh3U

---------------------------------------------------------------------------

CHORUS
  G                                 D
  1 + 2 + 3 + 4 +  1 + 2 + 3 + 4 +  1 + 2 + 3 + 4 +  1 + 2 + 3 + 4 +
e|----------------|----------------|----------------|----------------|
B|0-------0-------|----------------|----------------|----------------|
G|--------------2-|2---0-----------|----------------|----------------|
D|----------------|--------0-------|0-2-4-0-2---0---|0-2-4-0-2---0---|
A|----------------|----------------|----------------|----------------|
E|----------------|----------------|----------------|----------------|
  G                                 D                G
  1 + 2 + 3 + 4 +  1 + 2 + 3 + 4 +  1 + 2 + 3 + 4 +  1 + 2 + 3 + 4 +
e|----------------|----------------|----------------|----------------|
B|0-------0-------|----------------|------------3---|----------------|
G|--------------2-|2---0-----------|------0-2-------|0---------------|
D|----------------|--------0-------|0-2-4-----------|----------------|
A|----------------|----------------|----------------|----------------|
E|----------------|----------------|----------------|----------------|


VERSE
  D7                        G
  1 + 2 + 3 +  1 + 2 + 3 +  1 + 2 + 3 +  1 + 2 + 3 + 
e|------------|------------|------------|------------|
B|----1---0---|------------|0-----------|------------|
G|------------|2-------2---|--------0---|0-----------|
D|0-----------|------------|------------|------------|
A|------------|------------|------------|------------|
E|------------|------------|------------|------------|
  D7                        G
  1 + 2 + 3 +  1 + 2 + 3 +  1 + 2 + 3 +  1 + 2 + 3 + 
e|------------|------------|------------|------------|
B|----1---0---|------------|0-------1---|3-------3---|
G|------------|2-------2---|------------|------------|
D|0-----------|------------|------------|------------|
A|------------|------------|------------|------------|
E|------------|------------|------------|------------|
  C                         G
  1 + 2 + 3 +  1 + 2 + 3 +  1 + 2 + 3 +  1 + 2 + 3 + 
e|------------|--------5---|------------|------------|
B|5-------3---|5-----------|3-----------|------------|
G|------------|------------|--------4---|------------|
D|------------|------------|------------|5-----------|
A|------------|------------|------------|------------|
E|------------|------------|------------|------------|
  Am                        D
  1 + 2 + 3 +  1 + 2 + 3 +  1 + 2 + 3 +  1 + 2 + 3 + 
e|------------|------------|------------|------------|
B|------------|------------|------------|------------|
G|5-------4---|2-------0---|--------0---|2-----------|
D|------------|------------|4-----------|------------|
A|------------|------------|------------|------------|
E|------------|------------|------------|------------|
  D7                        G
  1 + 2 + 3 +  1 + 2 + 3 +  1 + 2 + 3 +  1 + 2 + 3 + 
e|------------|------------|------------|------------|
B|-1------0---|------------|0-----------|------------|
G|------------|2-------2---|--------0---|------------|
D|0-----------|------------|------------|0-----------|
A|------------|------------|------------|------------|
E|------------|------------|------------|------------|
 D7                        G 
 1 + 2 + 3 +  1 + 2 + 3 +  1 + 2 + 3 +  1 + 2 + 3 + 
e|------------|------------|------------|------------|
B|--------1---|0-----------|0-----------|------------|
G|------------|--------2---|------------|0-----------|
D|0-----------|------------|--------0---|------------|
A|------------|------------|------------|------------|
E|------------|------------|------------|------------|


---------------------------------------------------------------------------

CHORUS [4/4]
G               G
Hail, Hail, the gang's all here,
D 
We're all friends together,
D
In all kinds of weather ...
G
Hail, Hail, the gang's all here,
D                    G
We can have a lot of fun!


VERSE [3/4]
D7             G
Being alone is never fun
D7                G
Can't have fun without no-one
     C                  G
But, gee, when all your friends are here
Am              D
They bring happiness and cheer
D7                        G
Let all the house [tops?] gaily ring
D7           G
As our happy song we sing


CHORUS [4/4]
G               G
Hail, Hail, the gang's all here,
D 
We're all friends together,
D
In all kinds of weather ...
G
Hail, Hail, the gang's all here,
D                    G
We can have a lot of fun!


---------------------------------------------------------------------------

Alternative lyrics


Hail, hail, the gang's all here
What the heck do we care
What the heck do we care
Hail, hail, the gang's all here
What the heck do we care now

---------------------------------------------------------------------------

Hail, hail, the gang's all here,
Never mind the weather, here we are together;
Hail, hail, the gang's all here,
Sure we're glad that you're here, too!

Hail, hail, the gang's all here,
We're a bunch of live ones, not a single dead one;
Hail, hail, the gang's all here,
Sure I'm glad that I'm here, too!

Добавлено: 28.06.2015
Другие материалы по этой песне:
  • Аккорды и текст

Страница создана 28.06.2015
http://primanota.ru/misc-traditional/hail-hail-gangs-all-here-chords.htm
Привет, Гость.
Предлагаем пройти революционный курс по гитаре.
Подарок от PrimaNota.Ru, забирай!