PrimaNota.ru - самый крупный в мире бесплатный архив песенных текстов, аккордов, табулатур и нот


Misc Television - Variuos Tabs - таба, видео

Регистрация Запомнить меня
Войти через:  Facebook Google Twitter Vk Yandex Mail.ru

Misc Television - Variuos Tabs - таба, видео

Печатать
Просмотров: 100
HERE ARE SOME EASY SONGS AND VERY GOOD SONGS ENGOUGH THEM !!!
MY DREAM IS LEARN A LOT OF TABS AND KNOW HOW TO PLAY "X" IF SOMEBODY KNOW IT PLASE E-MAIL ME . THANKS !!  


THE SIMPSONS THEME (GREAT THEME)
----0--2---5--3--0-----------------------/
-1------------------1--------------------/ 
------------------------2------------1---/
----------------------------4-4-4-4------/
-----------------------------------------/
-----------------------------------------/

PINK PANTHER THEME 
------------------------------------------------------/
------------------------------------------------------/
------------------------------------------------------/
------------------------------------------------------/
--------------------------3-2------2-1--0-------------/
-1--2----3--4----1-2-3-4------2-5-----------5---2-0-2-/

STAR WARS MAIN THEME (IT IS NO COMPLETE )
------------------------3--------------3-----------------/
------------3--1--0--------3--1-0----------3-1-0-1-------/
--------0------------2-------------2----------------2---/     X 2
--0-0-0------------------------------------------------/
------------------------------------------------------/
-----------------------------------------------------/

JAMES BOND THEME
-------------------------------------------------------------------------------------
------------------------------------------------------------------------------------
-----------------------------------------------------------------------------------
--0-2-2-2-2-2--0-0-0-0-0-3-3-3-3-3--0-0-0-0-0--2-2-2-2-2--0-0-0-0-0-3-3-3-3-3-2-2-
---------------------------------------------------------------------------------
--------------------------------------------------------------------------------

----------------------------------------------------------------------------------------
-------------------------------------------------------------------------------------1-0
----------------------------------------------------------------------------------------
--0-2-2-2-2-2--0-0-0-0-0-3-3-3-3-3--0-0-0-0-0--2-2-2-2-2--0-0-0-0-0-3-3-3-3-3-2-1-0-----
----------------------------------------------------------------------------------------
----------------------------------------------------------------------------------------

-------/
-------/
-2-0-2-/
-------/
-------/
-------/

IN THE END-LINKIN PARK (IT IS JUST THE BEGINNING)
----------------------------                                         --------19----------
----------------------------                                         -20--19-----20-19-17
----------------------------      REPEAT A FEW TIMES THEN PLAY THIS  --------------------
-----9--9-------------------                                         --------------------
--7--------10--9--9--10-----                                         --------------------
----------------------------                                         --------------------

MISSION:IMPOSSIBLE THEME (LIMP BIZKIT - TAKE A LOOK AROUND)

--------------------------/                   -15-12----15-12----15-12----15-12---------/
--------------------------/                   -------12-------11-------10------11-11-10-/
--------------------------/                   ------------------------------------------/
--------5-7---------------/X7  THEN PLAY THIS ------------------------------------------/
7-7-7-7------7-7-7-7--5-6-/                   -----------------------------------------/
--------------------------/                   ----------------------------------------/


IF YOU WANT MORE EASY TABS OR SIMPLY YOU WANT COOL TABS  E-MAIL ME AT VIRUSS_HxC@hotmail.com  

I GOT LOT OF TABS AND VERY GOOD TABS AND REMEMBER IM A CR@ZY GUY JAJAJAJA (MY NAME IS JORGE YACOMAN AND I DONT REALLY SPEAK ENGLISH AND I DONT KNOW SOMETHINGS ABOUT THE GUITAR, BUT I KNOW THAT THIS TABLATURES ARE RIGHT .


MY DREAM IS LEARN A LOT OF TABS AND KNOW HOW TO PLAY "X" IF SOMEBODY KNOW IT PLASE E-MAIL ME . THANKS !!  




Добавлено: 25.06.2013
Другие материалы по этой песне:
  • Аккорды и текст

Страница создана 25.06.2013
http://primanota.ru/misc-television/variuos-tabs-chords.htm
Привет, Гость.
Предлагаем пройти революционный курс по гитаре.
Подарок от PrimaNota.Ru, забирай!