PrimaNota.ru - самый крупный в мире бесплатный архив песенных текстов, аккордов, табулатур и нот


Misc Television - Tmz Theme - таба, видео

Регистрация Запомнить меня
Войти через:  Facebook Google Twitter Vk Yandex Mail.ru

Misc Television - Tmz Theme - таба, видео

Печатать
Просмотров: 65
theme song


tmz


TRANSCRIBED BY RUDY GUZMAN


guzman_84@hotmail.com


       bar\
e:---------\--------------------------------------------------|
B:-7nh------\-------(7nh)-------------------------------------|
G:-7nh-------\------(7nh)-------------------------------------|
D:-7nh--------\-----(7nh)-------------------------------------|
A:-------------\----------------------------------------------|
E:--------------\---------------------------------------------|

e:------------------------------------------------------------------------|
B:------------------------------------------------------------------------|
G:------------------------------------------------------------------------|
D:------------------------------------------------------------------------|
A:------------------------------------------------------------------------|
E:-0-0-0-0-0-0-0-0-0--5-7--0-0-0-0-0-0-0-0-0--5-7--0-0-0-0-0-0-0-0-0--5-7-|

e:------------------------------------------------------------------------|
B:------------------------------------------------------------------------|
G:------------------------------------------------------------------------|
D:------------------------------------------------------------------------|
A:------------------------------------------------------------------------|
E:-0-0-0-0-0-0-0-0-0--5-7--0-0-0-0-0-0-0-0-0--5-7--0-0-0-0-0-0-0-0-0--5-7-|

e:----------------------------------------------|
B:----------------------------------------------|
G:----------------------------------------------|
D:------------------4-5---------------------4-5-|
A:-----5-6-7-------------------5-6-7------------|
E:-0----------5~~----------0----------5~~-------|

e:----------------------------------------------|
B:----------------------------------------------|
G:----------------------------------------------|
D:------------------4-5---------------------4-5-|
A:-----5-6-7-------------------5-6-7------------|
E:-0----------5~~----------0----------5~~-------|

e:---------------------------------|
B:---------------------------------|
G:---------------------------------|
D:------------------4-5------------|
A:-----5-6-7---------------2-2-2---|
E:-0----------5~~----------0-0-0---|


  *bass line tmz big letters*                                               
e:-----------------------------------|
B:-----------------------------------|
G:-----------------------------------|
D:-----------------------------------|
A:-----------------------------------|
E:-12p0--0-0-0-0--12-000-10-10-11-12-|

e:-------------------------------|
B:-------------------------------|
G:-------------------------------|
D:-------------------------------|
A:-------------------------------|
E:-0-0-0-0--12-000-10-10-11-12-0-|




hillo son mex

21/10/12
Добавлено: 02.08.2013
Другие материалы по этой песне:
  • Аккорды и текст

Страница создана 02.08.2013
http://primanota.ru/misc-television/tmz-theme-chords.htm
Привет, Гость.
Предлагаем пройти революционный курс по гитаре.
Подарок от PrimaNota.Ru, забирай!